ISO-10303-21;
HEADER;
FILE_DESCRIPTION (( 'STEP AP214' ),
    '1' );
FILE_NAME ('76.05.06.0006.step',
    '2021-04-02T17:37:22',
    ( '' ),
    ( '' ),
    'SwSTEP 2.0',
    'SolidWorks 2021',
    '' );
FILE_SCHEMA (( 'AUTOMOTIVE_DESIGN' ));
ENDSEC;

DATA;
#1 = EDGE_CURVE ( 'NONE', #28, #28, #3, .T. ) ;
#2 = EDGE_LOOP ( 'NONE', ( #23 ) ) ;
#3 = CIRCLE ( 'NONE', #126, 13.50000000000000000 ) ;
#4 = MECHANICAL_DESIGN_GEOMETRIC_PRESENTATION_REPRESENTATION (  '', ( #67 ), #123 ) ;
#5 = CARTESIAN_POINT ( 'NONE',  ( 13.50000000000000000, 0.000000000000000000, -1.000000000000000000 ) ) ;
#6 = APPLICATION_PROTOCOL_DEFINITION ( 'draft international standard', 'automotive_design', 1998, #103 ) ;
#7 = FILL_AREA_STYLE_COLOUR ( '', #32 ) ;
#8 =( LENGTH_UNIT ( ) NAMED_UNIT ( * ) SI_UNIT ( .MILLI., .METRE. ) );
#9 =( LENGTH_UNIT ( ) NAMED_UNIT ( * ) SI_UNIT ( .MILLI., .METRE. ) );
#10 = EDGE_CURVE ( 'NONE', #113, #113, #48, .T. ) ;
#11 = CYLINDRICAL_SURFACE ( 'NONE', #99, 8.500000000000000000 ) ;
#12 = COLOUR_RGB ( '',0.7764705882352941346, 0.7568627450980391913, 0.7372549019607843590 ) ;
#13 = CARTESIAN_POINT ( 'NONE',  ( 0.000000000000000000, 0.000000000000000000, 1.000000000000000000 ) ) ;
#14 = CARTESIAN_POINT ( 'NONE',  ( 8.500000000000000000, 0.000000000000000000, 1.000000000000000000 ) ) ;
#15 = PRODUCT_DEFINITION_CONTEXT ( 'detailed design', #116, 'design' ) ;
#16 = FILL_AREA_STYLE_COLOUR ( '', #12 ) ;
#17 = CARTESIAN_POINT ( 'NONE',  ( 8.500000000000000000, 0.000000000000000000, -1.000000000000000000 ) ) ;
#18 = PLANE ( 'NONE',  #50 ) ;
#19 = PRODUCT_CONTEXT ( 'NONE', #103, 'mechanical' ) ;
#20 = DIRECTION ( 'NONE',  ( 0.000000000000000000, 0.000000000000000000, 1.000000000000000000 ) ) ;
#21 = ADVANCED_BREP_SHAPE_REPRESENTATION ( '76.05.06.0006', ( #76, #94 ), #44 ) ;
#22 = EDGE_LOOP ( 'NONE', ( #47 ) ) ;
#23 = ORIENTED_EDGE ( 'NONE', *, *, #10, .F. ) ;
#24 = CARTESIAN_POINT ( 'NONE',  ( 0.000000000000000000, 0.000000000000000000, -1.000000000000000000 ) ) ;
#25 = DIRECTION ( 'NONE',  ( 1.000000000000000000, 0.000000000000000000, 0.000000000000000000 ) ) ;
#26 = DIRECTION ( 'NONE',  ( 1.000000000000000000, 0.000000000000000000, -0.000000000000000000 ) ) ;
#27 = CIRCLE ( 'NONE', #74, 8.500000000000000000 ) ;
#28 = VERTEX_POINT ( 'NONE', #5 ) ;
#29 = FACE_BOUND ( 'NONE', #2, .T. ) ;
#30 = EDGE_LOOP ( 'NONE', ( #124 ) ) ;
#31 = EDGE_LOOP ( 'NONE', ( #68 ) ) ;
#32 = COLOUR_RGB ( '',0.7764705882352941346, 0.7568627450980391913, 0.7372549019607843590 ) ;
#33 =( LENGTH_UNIT ( ) NAMED_UNIT ( * ) SI_UNIT ( .MILLI., .METRE. ) );
#34 = SURFACE_STYLE_USAGE ( .BOTH. , #86 ) ;
#35 =( NAMED_UNIT ( * ) PLANE_ANGLE_UNIT ( ) SI_UNIT ( $, .RADIAN. ) );
#36 = DIRECTION ( 'NONE',  ( 0.000000000000000000, 0.000000000000000000, 1.000000000000000000 ) ) ;
#37 =( GEOMETRIC_REPRESENTATION_CONTEXT ( 3 ) GLOBAL_UNCERTAINTY_ASSIGNED_CONTEXT ( ( #66 ) ) GLOBAL_UNIT_ASSIGNED_CONTEXT ( ( #9, #130, #118 ) ) REPRESENTATION_CONTEXT ( 'NONE', 'WORKASPACE' ) );
#38 = DIRECTION ( 'NONE',  ( 1.000000000000000000, 0.000000000000000000, 0.000000000000000000 ) ) ;
#39 = AXIS2_PLACEMENT_3D ( 'NONE', #131, #117, #73 ) ;
#40 = FACE_OUTER_BOUND ( 'NONE', #101, .T. ) ;
#41 = AXIS2_PLACEMENT_3D ( 'NONE', #55, #84, #25 ) ;
#42 = ORIENTED_EDGE ( 'NONE', *, *, #132, .F. ) ;
#43 = APPLICATION_PROTOCOL_DEFINITION ( 'draft international standard', 'automotive_design', 1998, #116 ) ;
#44 =( GEOMETRIC_REPRESENTATION_CONTEXT ( 3 ) GLOBAL_UNCERTAINTY_ASSIGNED_CONTEXT ( ( #60 ) ) GLOBAL_UNIT_ASSIGNED_CONTEXT ( ( #33, #35, #65 ) ) REPRESENTATION_CONTEXT ( 'NONE', 'WORKASPACE' ) );
#45 = SURFACE_STYLE_FILL_AREA ( #128 ) ;
#46 =( NAMED_UNIT ( * ) SI_UNIT ( $, .STERADIAN. ) SOLID_ANGLE_UNIT ( ) );
#47 = ORIENTED_EDGE ( 'NONE', *, *, #1, .T. ) ;
#48 = CIRCLE ( 'NONE', #91, 8.500000000000000000 ) ;
#49 = SURFACE_STYLE_FILL_AREA ( #70 ) ;
#50 = AXIS2_PLACEMENT_3D ( 'NONE', #97, #108, #26 ) ;
#51 = PRODUCT_RELATED_PRODUCT_CATEGORY ( 'part', '', ( #53 ) ) ;
#52 = CARTESIAN_POINT ( 'NONE',  ( 0.000000000000000000, 0.000000000000000000, -1.000000000000000000 ) ) ;
#53 = PRODUCT ( '76.05.06.0006', '76.05.06.0006', '', ( #19 ) ) ;
#54 = FACE_OUTER_BOUND ( 'NONE', #125, .T. ) ;
#55 = CARTESIAN_POINT ( 'NONE',  ( 0.000000000000000000, 0.000000000000000000, 1.000000000000000000 ) ) ;
#56 = ADVANCED_FACE ( 'NONE', ( #133, #40 ), #11, .F. ) ;
#57 = DIRECTION ( 'NONE',  ( 1.000000000000000000, 0.000000000000000000, 0.000000000000000000 ) ) ;
#58 = EDGE_LOOP ( 'NONE', ( #80 ) ) ;
#59 = DIRECTION ( 'NONE',  ( -1.000000000000000000, 0.000000000000000000, 0.000000000000000000 ) ) ;
#60 = UNCERTAINTY_MEASURE_WITH_UNIT (LENGTH_MEASURE( 1.000000000000000082E-05 ), #33, 'distance_accuracy_value', 'NONE');
#61 = AXIS2_PLACEMENT_3D ( 'NONE', #13, #112, #95 ) ;
#62 = UNCERTAINTY_MEASURE_WITH_UNIT (LENGTH_MEASURE( 1.000000000000000082E-05 ), #8, 'distance_accuracy_value', 'NONE');
#63 = FACE_OUTER_BOUND ( 'NONE', #22, .T. ) ;
#64 = FACE_BOUND ( 'NONE', #30, .T. ) ;
#65 =( NAMED_UNIT ( * ) SI_UNIT ( $, .STERADIAN. ) SOLID_ANGLE_UNIT ( ) );
#66 = UNCERTAINTY_MEASURE_WITH_UNIT (LENGTH_MEASURE( 1.000000000000000082E-05 ), #9, 'distance_accuracy_value', 'NONE');
#67 = STYLED_ITEM ( 'NONE', ( #71 ), #21 ) ;
#68 = ORIENTED_EDGE ( 'NONE', *, *, #132, .T. ) ;
#69 = DIRECTION ( 'NONE',  ( 1.000000000000000000, 0.000000000000000000, 0.000000000000000000 ) ) ;
#70 = FILL_AREA_STYLE ('',( #16 ) ) ;
#71 = PRESENTATION_STYLE_ASSIGNMENT (( #34 ) ) ;
#72 =( NAMED_UNIT ( * ) PLANE_ANGLE_UNIT ( ) SI_UNIT ( $, .RADIAN. ) );
#73 = DIRECTION ( 'NONE',  ( 1.000000000000000000, 0.000000000000000000, -0.000000000000000000 ) ) ;
#74 = AXIS2_PLACEMENT_3D ( 'NONE', #52, #36, #38 ) ;
#75 = SHAPE_DEFINITION_REPRESENTATION ( #89, #21 ) ;
#76 = MANIFOLD_SOLID_BREP ( 'Boss-Extrude1', #115 ) ;
#77 = PRESENTATION_LAYER_ASSIGNMENT (  '', '', ( #67 ) ) ;
#78 = ORIENTED_EDGE ( 'NONE', *, *, #1, .F. ) ;
#79 = DIRECTION ( 'NONE',  ( 0.000000000000000000, 0.000000000000000000, 1.000000000000000000 ) ) ;
#80 = ORIENTED_EDGE ( 'NONE', *, *, #10, .T. ) ;
#81 = MECHANICAL_DESIGN_GEOMETRIC_PRESENTATION_REPRESENTATION (  '', ( #119 ), #37 ) ;
#82 = EDGE_CURVE ( 'NONE', #129, #129, #27, .T. ) ;
#83 = SURFACE_STYLE_USAGE ( .BOTH. , #92 ) ;
#84 = DIRECTION ( 'NONE',  ( 0.000000000000000000, 0.000000000000000000, 1.000000000000000000 ) ) ;
#85 = PRODUCT_DEFINITION_FORMATION_WITH_SPECIFIED_SOURCE ( 'ANY', '', #53, .NOT_KNOWN. ) ;
#86 = SURFACE_SIDE_STYLE ('',( #45 ) ) ;
#87 = ADVANCED_FACE ( 'NONE', ( #109, #29 ), #88, .T. ) ;
#88 = PLANE ( 'NONE',  #39 ) ;
#89 = PRODUCT_DEFINITION_SHAPE ( 'NONE', 'NONE',  #106 ) ;
#90 = CARTESIAN_POINT ( 'NONE',  ( 0.000000000000000000, 0.000000000000000000, 1.000000000000000000 ) ) ;
#91 = AXIS2_PLACEMENT_3D ( 'NONE', #90, #79, #100 ) ;
#92 = SURFACE_SIDE_STYLE ('',( #49 ) ) ;
#93 = CARTESIAN_POINT ( 'NONE',  ( 13.50000000000000000, 0.000000000000000000, 1.000000000000000000 ) ) ;
#94 = AXIS2_PLACEMENT_3D ( 'NONE', #120, #20, #57 ) ;
#95 = DIRECTION ( 'NONE',  ( -1.000000000000000000, 0.000000000000000000, 0.000000000000000000 ) ) ;
#96 = ADVANCED_FACE ( 'NONE', ( #54, #64 ), #18, .F. ) ;
#97 = CARTESIAN_POINT ( 'NONE',  ( 0.000000000000000000, 0.000000000000000000, -1.000000000000000000 ) ) ;
#98 = VERTEX_POINT ( 'NONE', #93 ) ;
#99 = AXIS2_PLACEMENT_3D ( 'NONE', #121, #105, #59 ) ;
#100 = DIRECTION ( 'NONE',  ( 1.000000000000000000, 0.000000000000000000, 0.000000000000000000 ) ) ;
#101 = EDGE_LOOP ( 'NONE', ( #102 ) ) ;
#102 = ORIENTED_EDGE ( 'NONE', *, *, #82, .F. ) ;
#103 = APPLICATION_CONTEXT ( 'automotive_design' ) ;
#104 = DIRECTION ( 'NONE',  ( 0.000000000000000000, 0.000000000000000000, 1.000000000000000000 ) ) ;
#105 = DIRECTION ( 'NONE',  ( -0.000000000000000000, -0.000000000000000000, -1.000000000000000000 ) ) ;
#106 = PRODUCT_DEFINITION ( 'UNKNOWN', '', #85, #15 ) ;
#107 = CYLINDRICAL_SURFACE ( 'NONE', #61, 13.50000000000000000 ) ;
#108 = DIRECTION ( 'NONE',  ( 0.000000000000000000, 0.000000000000000000, 1.000000000000000000 ) ) ;
#109 = FACE_OUTER_BOUND ( 'NONE', #31, .T. ) ;
#110 = EDGE_LOOP ( 'NONE', ( #42 ) ) ;
#111 = PRESENTATION_STYLE_ASSIGNMENT (( #83 ) ) ;
#112 = DIRECTION ( 'NONE',  ( -0.000000000000000000, -0.000000000000000000, -1.000000000000000000 ) ) ;
#113 = VERTEX_POINT ( 'NONE', #14 ) ;
#114 = FACE_OUTER_BOUND ( 'NONE', #110, .T. ) ;
#115 = CLOSED_SHELL ( 'NONE', ( #87, #96, #127, #56 ) ) ;
#116 = APPLICATION_CONTEXT ( 'automotive_design' ) ;
#117 = DIRECTION ( 'NONE',  ( 0.000000000000000000, 0.000000000000000000, 1.000000000000000000 ) ) ;
#118 =( NAMED_UNIT ( * ) SI_UNIT ( $, .STERADIAN. ) SOLID_ANGLE_UNIT ( ) );
#119 = STYLED_ITEM ( 'NONE', ( #111 ), #76 ) ;
#120 = CARTESIAN_POINT ( 'NONE',  ( 0.000000000000000000, 0.000000000000000000, 0.000000000000000000 ) ) ;
#121 = CARTESIAN_POINT ( 'NONE',  ( 0.000000000000000000, 0.000000000000000000, 1.000000000000000000 ) ) ;
#122 = CIRCLE ( 'NONE', #41, 13.50000000000000000 ) ;
#123 =( GEOMETRIC_REPRESENTATION_CONTEXT ( 3 ) GLOBAL_UNCERTAINTY_ASSIGNED_CONTEXT ( ( #62 ) ) GLOBAL_UNIT_ASSIGNED_CONTEXT ( ( #8, #72, #46 ) ) REPRESENTATION_CONTEXT ( 'NONE', 'WORKASPACE' ) );
#124 = ORIENTED_EDGE ( 'NONE', *, *, #82, .T. ) ;
#125 = EDGE_LOOP ( 'NONE', ( #78 ) ) ;
#126 = AXIS2_PLACEMENT_3D ( 'NONE', #24, #104, #69 ) ;
#127 = ADVANCED_FACE ( 'NONE', ( #114, #63 ), #107, .T. ) ;
#128 = FILL_AREA_STYLE ('',( #7 ) ) ;
#129 = VERTEX_POINT ( 'NONE', #17 ) ;
#130 =( NAMED_UNIT ( * ) PLANE_ANGLE_UNIT ( ) SI_UNIT ( $, .RADIAN. ) );
#131 = CARTESIAN_POINT ( 'NONE',  ( 0.000000000000000000, 0.000000000000000000, 1.000000000000000000 ) ) ;
#132 = EDGE_CURVE ( 'NONE', #98, #98, #122, .T. ) ;
#133 = FACE_OUTER_BOUND ( 'NONE', #58, .T. ) ;
#134 = PRESENTATION_LAYER_ASSIGNMENT (  '', '', ( #119 ) ) ;
ENDSEC;
END-ISO-10303-21;
