ISO-10303-21;
HEADER;
FILE_DESCRIPTION (( 'STEP AP214' ),
    '1' );
FILE_NAME ('76.05.06.0003.step',
    '2021-04-02T17:37:18',
    ( '' ),
    ( '' ),
    'SwSTEP 2.0',
    'SolidWorks 2021',
    '' );
FILE_SCHEMA (( 'AUTOMOTIVE_DESIGN' ));
ENDSEC;

DATA;
#1 = ORIENTED_EDGE ( 'NONE', *, *, #60, .T. ) ;
#2 = PRESENTATION_LAYER_ASSIGNMENT (  '', '', ( #67 ) ) ;
#3 = FACE_BOUND ( 'NONE', #73, .T. ) ;
#4 = PLANE ( 'NONE',  #39 ) ;
#5 = DIRECTION ( 'NONE',  ( 1.000000000000000000, 0.000000000000000000, -0.000000000000000000 ) ) ;
#6 = CIRCLE ( 'NONE', #115, 7.500000000000000000 ) ;
#7 = MECHANICAL_DESIGN_GEOMETRIC_PRESENTATION_REPRESENTATION (  '', ( #67 ), #125 ) ;
#8 = DIRECTION ( 'NONE',  ( -1.000000000000000000, 0.000000000000000000, 0.000000000000000000 ) ) ;
#9 = FACE_OUTER_BOUND ( 'NONE', #132, .T. ) ;
#10 = EDGE_LOOP ( 'NONE', ( #82 ) ) ;
#11 =( LENGTH_UNIT ( ) NAMED_UNIT ( * ) SI_UNIT ( .MILLI., .METRE. ) );
#12 = SURFACE_STYLE_FILL_AREA ( #100 ) ;
#13 = DIRECTION ( 'NONE',  ( 0.000000000000000000, 0.000000000000000000, 1.000000000000000000 ) ) ;
#14 = CARTESIAN_POINT ( 'NONE',  ( 0.000000000000000000, 0.000000000000000000, 0.8000000000000000444 ) ) ;
#15 = DIRECTION ( 'NONE',  ( 0.000000000000000000, 0.000000000000000000, 1.000000000000000000 ) ) ;
#16 = VERTEX_POINT ( 'NONE', #46 ) ;
#17 = ORIENTED_EDGE ( 'NONE', *, *, #94, .F. ) ;
#18 =( NAMED_UNIT ( * ) SI_UNIT ( $, .STERADIAN. ) SOLID_ANGLE_UNIT ( ) );
#19 =( NAMED_UNIT ( * ) SI_UNIT ( $, .STERADIAN. ) SOLID_ANGLE_UNIT ( ) );
#20 = DIRECTION ( 'NONE',  ( 1.000000000000000000, 0.000000000000000000, -0.000000000000000000 ) ) ;
#21 = SURFACE_SIDE_STYLE ('',( #62 ) ) ;
#22 = DIRECTION ( 'NONE',  ( 0.000000000000000000, 0.000000000000000000, 1.000000000000000000 ) ) ;
#23 = DIRECTION ( 'NONE',  ( 0.000000000000000000, 0.000000000000000000, 1.000000000000000000 ) ) ;
#24 = CARTESIAN_POINT ( 'NONE',  ( 0.000000000000000000, 0.000000000000000000, 0.8000000000000000444 ) ) ;
#25 = PRODUCT_DEFINITION_CONTEXT ( 'detailed design', #128, 'design' ) ;
#26 = ORIENTED_EDGE ( 'NONE', *, *, #116, .T. ) ;
#27 =( LENGTH_UNIT ( ) NAMED_UNIT ( * ) SI_UNIT ( .MILLI., .METRE. ) );
#28 =( NAMED_UNIT ( * ) PLANE_ANGLE_UNIT ( ) SI_UNIT ( $, .RADIAN. ) );
#29 = FACE_BOUND ( 'NONE', #105, .T. ) ;
#30 =( NAMED_UNIT ( * ) PLANE_ANGLE_UNIT ( ) SI_UNIT ( $, .RADIAN. ) );
#31 = PLANE ( 'NONE',  #63 ) ;
#32 = CARTESIAN_POINT ( 'NONE',  ( 0.000000000000000000, 0.000000000000000000, -0.8000000000000000444 ) ) ;
#33 = FACE_OUTER_BOUND ( 'NONE', #114, .T. ) ;
#34 = CARTESIAN_POINT ( 'NONE',  ( 7.500000000000000000, 0.000000000000000000, -0.8000000000000000444 ) ) ;
#35 = SURFACE_SIDE_STYLE ('',( #12 ) ) ;
#36 = MECHANICAL_DESIGN_GEOMETRIC_PRESENTATION_REPRESENTATION (  '', ( #47 ), #56 ) ;
#37 = FILL_AREA_STYLE_COLOUR ( '', #134 ) ;
#38 = PRESENTATION_STYLE_ASSIGNMENT (( #126 ) ) ;
#39 = AXIS2_PLACEMENT_3D ( 'NONE', #44, #78, #20 ) ;
#40 = PRODUCT_DEFINITION_SHAPE ( 'NONE', 'NONE',  #96 ) ;
#41 = PRODUCT ( '76.05.06.0003', '76.05.06.0003', '', ( #99 ) ) ;
#42 = COLOUR_RGB ( '',0.7764705882352941346, 0.7568627450980391913, 0.7372549019607843590 ) ;
#43 = FILL_AREA_STYLE_COLOUR ( '', #42 ) ;
#44 = CARTESIAN_POINT ( 'NONE',  ( 0.000000000000000000, 0.000000000000000000, 0.8000000000000000444 ) ) ;
#45 = EDGE_LOOP ( 'NONE', ( #1 ) ) ;
#46 = CARTESIAN_POINT ( 'NONE',  ( 4.200000000000000178, 0.000000000000000000, 0.8000000000000000444 ) ) ;
#47 = STYLED_ITEM ( 'NONE', ( #38 ), #130 ) ;
#48 = APPLICATION_PROTOCOL_DEFINITION ( 'draft international standard', 'automotive_design', 1998, #128 ) ;
#49 = AXIS2_PLACEMENT_3D ( 'NONE', #24, #103, #8 ) ;
#50 = DIRECTION ( 'NONE',  ( 1.000000000000000000, 0.000000000000000000, 0.000000000000000000 ) ) ;
#51 = ORIENTED_EDGE ( 'NONE', *, *, #60, .F. ) ;
#52 = FACE_OUTER_BOUND ( 'NONE', #10, .T. ) ;
#53 = CIRCLE ( 'NONE', #76, 4.200000000000000178 ) ;
#54 = DIRECTION ( 'NONE',  ( 1.000000000000000000, 0.000000000000000000, 0.000000000000000000 ) ) ;
#55 = DIRECTION ( 'NONE',  ( -0.000000000000000000, -0.000000000000000000, -1.000000000000000000 ) ) ;
#56 =( GEOMETRIC_REPRESENTATION_CONTEXT ( 3 ) GLOBAL_UNCERTAINTY_ASSIGNED_CONTEXT ( ( #110 ) ) GLOBAL_UNIT_ASSIGNED_CONTEXT ( ( #11, #88, #19 ) ) REPRESENTATION_CONTEXT ( 'NONE', 'WORKASPACE' ) );
#57 = ADVANCED_FACE ( 'NONE', ( #68, #9 ), #89, .F. ) ;
#58 = UNCERTAINTY_MEASURE_WITH_UNIT (LENGTH_MEASURE( 1.000000000000000082E-05 ), #102, 'distance_accuracy_value', 'NONE');
#59 = ORIENTED_EDGE ( 'NONE', *, *, #64, .F. ) ;
#60 = EDGE_CURVE ( 'NONE', #92, #92, #61, .T. ) ;
#61 = CIRCLE ( 'NONE', #71, 7.500000000000000000 ) ;
#62 = SURFACE_STYLE_FILL_AREA ( #91 ) ;
#63 = AXIS2_PLACEMENT_3D ( 'NONE', #32, #23, #5 ) ;
#64 = EDGE_CURVE ( 'NONE', #131, #131, #6, .T. ) ;
#65 = PRESENTATION_STYLE_ASSIGNMENT (( #119 ) ) ;
#66 = DIRECTION ( 'NONE',  ( 0.000000000000000000, 0.000000000000000000, 1.000000000000000000 ) ) ;
#67 = STYLED_ITEM ( 'NONE', ( #65 ), #120 ) ;
#68 = FACE_OUTER_BOUND ( 'NONE', #75, .T. ) ;
#69 = PRODUCT_RELATED_PRODUCT_CATEGORY ( 'part', '', ( #41 ) ) ;
#70 = CARTESIAN_POINT ( 'NONE',  ( 0.000000000000000000, 0.000000000000000000, 0.8000000000000000444 ) ) ;
#71 = AXIS2_PLACEMENT_3D ( 'NONE', #108, #15, #101 ) ;
#72 = AXIS2_PLACEMENT_3D ( 'NONE', #118, #13, #79 ) ;
#73 = EDGE_LOOP ( 'NONE', ( #97 ) ) ;
#74 = UNCERTAINTY_MEASURE_WITH_UNIT (LENGTH_MEASURE( 1.000000000000000082E-05 ), #27, 'distance_accuracy_value', 'NONE');
#75 = EDGE_LOOP ( 'NONE', ( #26 ) ) ;
#76 = AXIS2_PLACEMENT_3D ( 'NONE', #104, #127, #129 ) ;
#77 = PRESENTATION_LAYER_ASSIGNMENT (  '', '', ( #47 ) ) ;
#78 = DIRECTION ( 'NONE',  ( 0.000000000000000000, 0.000000000000000000, 1.000000000000000000 ) ) ;
#79 = DIRECTION ( 'NONE',  ( 1.000000000000000000, 0.000000000000000000, 0.000000000000000000 ) ) ;
#80 = CYLINDRICAL_SURFACE ( 'NONE', #85, 7.500000000000000000 ) ;
#81 = FACE_OUTER_BOUND ( 'NONE', #121, .T. ) ;
#82 = ORIENTED_EDGE ( 'NONE', *, *, #64, .T. ) ;
#83 = APPLICATION_CONTEXT ( 'automotive_design' ) ;
#84 = CARTESIAN_POINT ( 'NONE',  ( 4.200000000000000178, 0.000000000000000000, -0.8000000000000000444 ) ) ;
#85 = AXIS2_PLACEMENT_3D ( 'NONE', #70, #55, #133 ) ;
#86 = CIRCLE ( 'NONE', #112, 4.200000000000000178 ) ;
#87 =( GEOMETRIC_REPRESENTATION_CONTEXT ( 3 ) GLOBAL_UNCERTAINTY_ASSIGNED_CONTEXT ( ( #74 ) ) GLOBAL_UNIT_ASSIGNED_CONTEXT ( ( #27, #28, #18 ) ) REPRESENTATION_CONTEXT ( 'NONE', 'WORKASPACE' ) );
#88 =( NAMED_UNIT ( * ) PLANE_ANGLE_UNIT ( ) SI_UNIT ( $, .RADIAN. ) );
#89 = CYLINDRICAL_SURFACE ( 'NONE', #49, 4.200000000000000178 ) ;
#90 = ADVANCED_FACE ( 'NONE', ( #81, #3 ), #31, .F. ) ;
#91 = FILL_AREA_STYLE ('',( #43 ) ) ;
#92 = VERTEX_POINT ( 'NONE', #34 ) ;
#93 =( NAMED_UNIT ( * ) SI_UNIT ( $, .STERADIAN. ) SOLID_ANGLE_UNIT ( ) );
#94 = EDGE_CURVE ( 'NONE', #113, #113, #53, .T. ) ;
#95 = CARTESIAN_POINT ( 'NONE',  ( 7.500000000000000000, 0.000000000000000000, 0.8000000000000000444 ) ) ;
#96 = PRODUCT_DEFINITION ( 'UNKNOWN', '', #106, #25 ) ;
#97 = ORIENTED_EDGE ( 'NONE', *, *, #94, .T. ) ;
#98 = SHAPE_DEFINITION_REPRESENTATION ( #40, #130 ) ;
#99 = PRODUCT_CONTEXT ( 'NONE', #83, 'mechanical' ) ;
#100 = FILL_AREA_STYLE ('',( #37 ) ) ;
#101 = DIRECTION ( 'NONE',  ( 1.000000000000000000, 0.000000000000000000, 0.000000000000000000 ) ) ;
#102 =( LENGTH_UNIT ( ) NAMED_UNIT ( * ) SI_UNIT ( .MILLI., .METRE. ) );
#103 = DIRECTION ( 'NONE',  ( -0.000000000000000000, -0.000000000000000000, -1.000000000000000000 ) ) ;
#104 = CARTESIAN_POINT ( 'NONE',  ( 0.000000000000000000, 0.000000000000000000, -0.8000000000000000444 ) ) ;
#105 = EDGE_LOOP ( 'NONE', ( #122 ) ) ;
#106 = PRODUCT_DEFINITION_FORMATION_WITH_SPECIFIED_SOURCE ( 'ANY', '', #41, .NOT_KNOWN. ) ;
#107 = APPLICATION_PROTOCOL_DEFINITION ( 'draft international standard', 'automotive_design', 1998, #83 ) ;
#108 = CARTESIAN_POINT ( 'NONE',  ( 0.000000000000000000, 0.000000000000000000, -0.8000000000000000444 ) ) ;
#109 = ADVANCED_FACE ( 'NONE', ( #52, #29 ), #4, .T. ) ;
#110 = UNCERTAINTY_MEASURE_WITH_UNIT (LENGTH_MEASURE( 1.000000000000000082E-05 ), #11, 'distance_accuracy_value', 'NONE');
#111 = FACE_OUTER_BOUND ( 'NONE', #45, .T. ) ;
#112 = AXIS2_PLACEMENT_3D ( 'NONE', #117, #66, #50 ) ;
#113 = VERTEX_POINT ( 'NONE', #84 ) ;
#114 = EDGE_LOOP ( 'NONE', ( #59 ) ) ;
#115 = AXIS2_PLACEMENT_3D ( 'NONE', #14, #22, #54 ) ;
#116 = EDGE_CURVE ( 'NONE', #16, #16, #86, .T. ) ;
#117 = CARTESIAN_POINT ( 'NONE',  ( 0.000000000000000000, 0.000000000000000000, 0.8000000000000000444 ) ) ;
#118 = CARTESIAN_POINT ( 'NONE',  ( 0.000000000000000000, 0.000000000000000000, 0.000000000000000000 ) ) ;
#119 = SURFACE_STYLE_USAGE ( .BOTH. , #21 ) ;
#120 = MANIFOLD_SOLID_BREP ( 'Boss-Extrude1', #123 ) ;
#121 = EDGE_LOOP ( 'NONE', ( #51 ) ) ;
#122 = ORIENTED_EDGE ( 'NONE', *, *, #116, .F. ) ;
#123 = CLOSED_SHELL ( 'NONE', ( #109, #90, #124, #57 ) ) ;
#124 = ADVANCED_FACE ( 'NONE', ( #33, #111 ), #80, .T. ) ;
#125 =( GEOMETRIC_REPRESENTATION_CONTEXT ( 3 ) GLOBAL_UNCERTAINTY_ASSIGNED_CONTEXT ( ( #58 ) ) GLOBAL_UNIT_ASSIGNED_CONTEXT ( ( #102, #30, #93 ) ) REPRESENTATION_CONTEXT ( 'NONE', 'WORKASPACE' ) );
#126 = SURFACE_STYLE_USAGE ( .BOTH. , #35 ) ;
#127 = DIRECTION ( 'NONE',  ( 0.000000000000000000, 0.000000000000000000, 1.000000000000000000 ) ) ;
#128 = APPLICATION_CONTEXT ( 'automotive_design' ) ;
#129 = DIRECTION ( 'NONE',  ( 1.000000000000000000, 0.000000000000000000, 0.000000000000000000 ) ) ;
#130 = ADVANCED_BREP_SHAPE_REPRESENTATION ( '76.05.06.0003', ( #120, #72 ), #87 ) ;
#131 = VERTEX_POINT ( 'NONE', #95 ) ;
#132 = EDGE_LOOP ( 'NONE', ( #17 ) ) ;
#133 = DIRECTION ( 'NONE',  ( -1.000000000000000000, 0.000000000000000000, 0.000000000000000000 ) ) ;
#134 = COLOUR_RGB ( '',0.7764705882352941346, 0.7568627450980391913, 0.7372549019607843590 ) ;
ENDSEC;
END-ISO-10303-21;
