ISO-10303-21;
HEADER;
FILE_DESCRIPTION (( 'STEP AP214' ),
    '1' );
FILE_NAME ('76.05.06.0001.step',
    '2021-04-02T17:37:16',
    ( '' ),
    ( '' ),
    'SwSTEP 2.0',
    'SolidWorks 2021',
    '' );
FILE_SCHEMA (( 'AUTOMOTIVE_DESIGN' ));
ENDSEC;

DATA;
#1 = PRODUCT_DEFINITION_CONTEXT ( 'detailed design', #120, 'design' ) ;
#2 = PRODUCT_DEFINITION ( 'UNKNOWN', '', #89, #1 ) ;
#3 = EDGE_LOOP ( 'NONE', ( #97 ) ) ;
#4 = FACE_BOUND ( 'NONE', #78, .T. ) ;
#5 = COLOUR_RGB ( '',0.7764705882352941346, 0.7568627450980391913, 0.7372549019607843590 ) ;
#6 = ORIENTED_EDGE ( 'NONE', *, *, #68, .T. ) ;
#7 = CARTESIAN_POINT ( 'NONE',  ( 0.000000000000000000, 0.000000000000000000, -0.5000000000000000000 ) ) ;
#8 = EDGE_LOOP ( 'NONE', ( #24 ) ) ;
#9 = FILL_AREA_STYLE_COLOUR ( '', #85 ) ;
#10 = PRODUCT_RELATED_PRODUCT_CATEGORY ( 'part', '', ( #35 ) ) ;
#11 = DIRECTION ( 'NONE',  ( 0.000000000000000000, 0.000000000000000000, 1.000000000000000000 ) ) ;
#12 = UNCERTAINTY_MEASURE_WITH_UNIT (LENGTH_MEASURE( 1.000000000000000082E-05 ), #77, 'distance_accuracy_value', 'NONE');
#13 = DIRECTION ( 'NONE',  ( 1.000000000000000000, 0.000000000000000000, 0.000000000000000000 ) ) ;
#14 = CARTESIAN_POINT ( 'NONE',  ( 0.000000000000000000, 0.000000000000000000, 0.5000000000000000000 ) ) ;
#15 = DIRECTION ( 'NONE',  ( 0.000000000000000000, 0.000000000000000000, 1.000000000000000000 ) ) ;
#16 = FACE_OUTER_BOUND ( 'NONE', #8, .T. ) ;
#17 =( NAMED_UNIT ( * ) PLANE_ANGLE_UNIT ( ) SI_UNIT ( $, .RADIAN. ) );
#18 = ADVANCED_FACE ( 'NONE', ( #16, #4 ), #52, .F. ) ;
#19 = DIRECTION ( 'NONE',  ( 1.000000000000000000, 0.000000000000000000, 0.000000000000000000 ) ) ;
#20 = ADVANCED_BREP_SHAPE_REPRESENTATION ( '76.05.06.0001', ( #93, #72 ), #134 ) ;
#21 = AXIS2_PLACEMENT_3D ( 'NONE', #34, #88, #61 ) ;
#22 = FACE_OUTER_BOUND ( 'NONE', #65, .T. ) ;
#23 = EDGE_LOOP ( 'NONE', ( #121 ) ) ;
#24 = ORIENTED_EDGE ( 'NONE', *, *, #94, .F. ) ;
#25 = STYLED_ITEM ( 'NONE', ( #54 ), #20 ) ;
#26 = DIRECTION ( 'NONE',  ( -1.000000000000000000, 0.000000000000000000, 0.000000000000000000 ) ) ;
#27 = CARTESIAN_POINT ( 'NONE',  ( 0.000000000000000000, 0.000000000000000000, 0.5000000000000000000 ) ) ;
#28 = CYLINDRICAL_SURFACE ( 'NONE', #73, 4.750000000000000000 ) ;
#29 = AXIS2_PLACEMENT_3D ( 'NONE', #27, #108, #100 ) ;
#30 = SURFACE_STYLE_FILL_AREA ( #56 ) ;
#31 = PRODUCT_CONTEXT ( 'NONE', #105, 'mechanical' ) ;
#32 = EDGE_CURVE ( 'NONE', #122, #122, #60, .T. ) ;
#33 = DIRECTION ( 'NONE',  ( 1.000000000000000000, 0.000000000000000000, -0.000000000000000000 ) ) ;
#34 = CARTESIAN_POINT ( 'NONE',  ( 0.000000000000000000, 0.000000000000000000, 0.5000000000000000000 ) ) ;
#35 = PRODUCT ( '76.05.06.0001', '76.05.06.0001', '', ( #31 ) ) ;
#36 = CIRCLE ( 'NONE', #91, 4.750000000000000000 ) ;
#37 = SURFACE_SIDE_STYLE ('',( #128 ) ) ;
#38 = DIRECTION ( 'NONE',  ( 0.000000000000000000, 0.000000000000000000, 1.000000000000000000 ) ) ;
#39 = SURFACE_SIDE_STYLE ('',( #30 ) ) ;
#40 = FACE_OUTER_BOUND ( 'NONE', #127, .T. ) ;
#41 = CARTESIAN_POINT ( 'NONE',  ( 0.000000000000000000, 0.000000000000000000, -0.5000000000000000000 ) ) ;
#42 = CARTESIAN_POINT ( 'NONE',  ( 0.000000000000000000, 0.000000000000000000, 0.5000000000000000000 ) ) ;
#43 = CARTESIAN_POINT ( 'NONE',  ( 2.649999999999999911, 0.000000000000000000, 0.5000000000000000000 ) ) ;
#44 = AXIS2_PLACEMENT_3D ( 'NONE', #41, #15, #63 ) ;
#45 =( NAMED_UNIT ( * ) PLANE_ANGLE_UNIT ( ) SI_UNIT ( $, .RADIAN. ) );
#46 = FACE_OUTER_BOUND ( 'NONE', #107, .T. ) ;
#47 = AXIS2_PLACEMENT_3D ( 'NONE', #14, #106, #13 ) ;
#48 = STYLED_ITEM ( 'NONE', ( #110 ), #93 ) ;
#49 = UNCERTAINTY_MEASURE_WITH_UNIT (LENGTH_MEASURE( 1.000000000000000082E-05 ), #131, 'distance_accuracy_value', 'NONE');
#50 = ADVANCED_FACE ( 'NONE', ( #40, #22 ), #62, .F. ) ;
#51 = PLANE ( 'NONE',  #132 ) ;
#52 = PLANE ( 'NONE',  #115 ) ;
#53 = CIRCLE ( 'NONE', #47, 4.750000000000000000 ) ;
#54 = PRESENTATION_STYLE_ASSIGNMENT (( #111 ) ) ;
#55 = FACE_OUTER_BOUND ( 'NONE', #114, .T. ) ;
#56 = FILL_AREA_STYLE ('',( #117 ) ) ;
#57 = CARTESIAN_POINT ( 'NONE',  ( 0.000000000000000000, 0.000000000000000000, -0.5000000000000000000 ) ) ;
#58 = CIRCLE ( 'NONE', #44, 2.649999999999999911 ) ;
#59 = CARTESIAN_POINT ( 'NONE',  ( 4.750000000000000000, 0.000000000000000000, -0.5000000000000000000 ) ) ;
#60 = CIRCLE ( 'NONE', #29, 2.649999999999999911 ) ;
#61 = DIRECTION ( 'NONE',  ( -1.000000000000000000, 0.000000000000000000, 0.000000000000000000 ) ) ;
#62 = CYLINDRICAL_SURFACE ( 'NONE', #21, 2.649999999999999911 ) ;
#63 = DIRECTION ( 'NONE',  ( 1.000000000000000000, 0.000000000000000000, 0.000000000000000000 ) ) ;
#64 = CLOSED_SHELL ( 'NONE', ( #92, #18, #113, #50 ) ) ;
#65 = EDGE_LOOP ( 'NONE', ( #76 ) ) ;
#66 = PRESENTATION_LAYER_ASSIGNMENT (  '', '', ( #48 ) ) ;
#67 =( NAMED_UNIT ( * ) SI_UNIT ( $, .STERADIAN. ) SOLID_ANGLE_UNIT ( ) );
#68 = EDGE_CURVE ( 'NONE', #109, #109, #53, .T. ) ;
#69 = SURFACE_STYLE_USAGE ( .BOTH. , #39 ) ;
#70 =( LENGTH_UNIT ( ) NAMED_UNIT ( * ) SI_UNIT ( .MILLI., .METRE. ) );
#71 = FILL_AREA_STYLE ('',( #9 ) ) ;
#72 = AXIS2_PLACEMENT_3D ( 'NONE', #104, #11, #123 ) ;
#73 = AXIS2_PLACEMENT_3D ( 'NONE', #119, #102, #26 ) ;
#74 = MECHANICAL_DESIGN_GEOMETRIC_PRESENTATION_REPRESENTATION (  '', ( #25 ), #125 ) ;
#75 = DIRECTION ( 'NONE',  ( 0.000000000000000000, 0.000000000000000000, 1.000000000000000000 ) ) ;
#76 = ORIENTED_EDGE ( 'NONE', *, *, #84, .F. ) ;
#77 =( LENGTH_UNIT ( ) NAMED_UNIT ( * ) SI_UNIT ( .MILLI., .METRE. ) );
#78 = EDGE_LOOP ( 'NONE', ( #86 ) ) ;
#79 =( NAMED_UNIT ( * ) SI_UNIT ( $, .STERADIAN. ) SOLID_ANGLE_UNIT ( ) );
#80 = SHAPE_DEFINITION_REPRESENTATION ( #133, #20 ) ;
#81 = CARTESIAN_POINT ( 'NONE',  ( 4.750000000000000000, 0.000000000000000000, 0.5000000000000000000 ) ) ;
#82 =( NAMED_UNIT ( * ) SI_UNIT ( $, .STERADIAN. ) SOLID_ANGLE_UNIT ( ) );
#83 = CARTESIAN_POINT ( 'NONE',  ( 2.649999999999999911, 0.000000000000000000, -0.5000000000000000000 ) ) ;
#84 = EDGE_CURVE ( 'NONE', #129, #129, #58, .T. ) ;
#85 = COLOUR_RGB ( '',0.7764705882352941346, 0.7568627450980391913, 0.7372549019607843590 ) ;
#86 = ORIENTED_EDGE ( 'NONE', *, *, #84, .T. ) ;
#87 = DIRECTION ( 'NONE',  ( 0.000000000000000000, 0.000000000000000000, 1.000000000000000000 ) ) ;
#88 = DIRECTION ( 'NONE',  ( -0.000000000000000000, -0.000000000000000000, -1.000000000000000000 ) ) ;
#89 = PRODUCT_DEFINITION_FORMATION_WITH_SPECIFIED_SOURCE ( 'ANY', '', #35, .NOT_KNOWN. ) ;
#90 = FACE_OUTER_BOUND ( 'NONE', #3, .T. ) ;
#91 = AXIS2_PLACEMENT_3D ( 'NONE', #7, #38, #19 ) ;
#92 = ADVANCED_FACE ( 'NONE', ( #55, #96 ), #51, .T. ) ;
#93 = MANIFOLD_SOLID_BREP ( 'Boss-Extrude1', #64 ) ;
#94 = EDGE_CURVE ( 'NONE', #130, #130, #36, .T. ) ;
#95 = MECHANICAL_DESIGN_GEOMETRIC_PRESENTATION_REPRESENTATION (  '', ( #48 ), #126 ) ;
#96 = FACE_BOUND ( 'NONE', #23, .T. ) ;
#97 = ORIENTED_EDGE ( 'NONE', *, *, #94, .T. ) ;
#98 = ORIENTED_EDGE ( 'NONE', *, *, #68, .F. ) ;
#99 = APPLICATION_PROTOCOL_DEFINITION ( 'draft international standard', 'automotive_design', 1998, #120 ) ;
#100 = DIRECTION ( 'NONE',  ( 1.000000000000000000, 0.000000000000000000, 0.000000000000000000 ) ) ;
#101 = ORIENTED_EDGE ( 'NONE', *, *, #32, .T. ) ;
#102 = DIRECTION ( 'NONE',  ( -0.000000000000000000, -0.000000000000000000, -1.000000000000000000 ) ) ;
#103 =( NAMED_UNIT ( * ) PLANE_ANGLE_UNIT ( ) SI_UNIT ( $, .RADIAN. ) );
#104 = CARTESIAN_POINT ( 'NONE',  ( 0.000000000000000000, 0.000000000000000000, 0.000000000000000000 ) ) ;
#105 = APPLICATION_CONTEXT ( 'automotive_design' ) ;
#106 = DIRECTION ( 'NONE',  ( 0.000000000000000000, 0.000000000000000000, 1.000000000000000000 ) ) ;
#107 = EDGE_LOOP ( 'NONE', ( #98 ) ) ;
#108 = DIRECTION ( 'NONE',  ( 0.000000000000000000, 0.000000000000000000, 1.000000000000000000 ) ) ;
#109 = VERTEX_POINT ( 'NONE', #81 ) ;
#110 = PRESENTATION_STYLE_ASSIGNMENT (( #69 ) ) ;
#111 = SURFACE_STYLE_USAGE ( .BOTH. , #37 ) ;
#112 = UNCERTAINTY_MEASURE_WITH_UNIT (LENGTH_MEASURE( 1.000000000000000082E-05 ), #70, 'distance_accuracy_value', 'NONE');
#113 = ADVANCED_FACE ( 'NONE', ( #46, #90 ), #28, .T. ) ;
#114 = EDGE_LOOP ( 'NONE', ( #6 ) ) ;
#115 = AXIS2_PLACEMENT_3D ( 'NONE', #57, #75, #116 ) ;
#116 = DIRECTION ( 'NONE',  ( 1.000000000000000000, 0.000000000000000000, -0.000000000000000000 ) ) ;
#117 = FILL_AREA_STYLE_COLOUR ( '', #5 ) ;
#118 = PRESENTATION_LAYER_ASSIGNMENT (  '', '', ( #25 ) ) ;
#119 = CARTESIAN_POINT ( 'NONE',  ( 0.000000000000000000, 0.000000000000000000, 0.5000000000000000000 ) ) ;
#120 = APPLICATION_CONTEXT ( 'automotive_design' ) ;
#121 = ORIENTED_EDGE ( 'NONE', *, *, #32, .F. ) ;
#122 = VERTEX_POINT ( 'NONE', #43 ) ;
#123 = DIRECTION ( 'NONE',  ( 1.000000000000000000, 0.000000000000000000, 0.000000000000000000 ) ) ;
#124 = APPLICATION_PROTOCOL_DEFINITION ( 'draft international standard', 'automotive_design', 1998, #105 ) ;
#125 =( GEOMETRIC_REPRESENTATION_CONTEXT ( 3 ) GLOBAL_UNCERTAINTY_ASSIGNED_CONTEXT ( ( #12 ) ) GLOBAL_UNIT_ASSIGNED_CONTEXT ( ( #77, #17, #67 ) ) REPRESENTATION_CONTEXT ( 'NONE', 'WORKASPACE' ) );
#126 =( GEOMETRIC_REPRESENTATION_CONTEXT ( 3 ) GLOBAL_UNCERTAINTY_ASSIGNED_CONTEXT ( ( #112 ) ) GLOBAL_UNIT_ASSIGNED_CONTEXT ( ( #70, #103, #79 ) ) REPRESENTATION_CONTEXT ( 'NONE', 'WORKASPACE' ) );
#127 = EDGE_LOOP ( 'NONE', ( #101 ) ) ;
#128 = SURFACE_STYLE_FILL_AREA ( #71 ) ;
#129 = VERTEX_POINT ( 'NONE', #83 ) ;
#130 = VERTEX_POINT ( 'NONE', #59 ) ;
#131 =( LENGTH_UNIT ( ) NAMED_UNIT ( * ) SI_UNIT ( .MILLI., .METRE. ) );
#132 = AXIS2_PLACEMENT_3D ( 'NONE', #42, #87, #33 ) ;
#133 = PRODUCT_DEFINITION_SHAPE ( 'NONE', 'NONE',  #2 ) ;
#134 =( GEOMETRIC_REPRESENTATION_CONTEXT ( 3 ) GLOBAL_UNCERTAINTY_ASSIGNED_CONTEXT ( ( #49 ) ) GLOBAL_UNIT_ASSIGNED_CONTEXT ( ( #131, #45, #82 ) ) REPRESENTATION_CONTEXT ( 'NONE', 'WORKASPACE' ) );
ENDSEC;
END-ISO-10303-21;
