ISO-10303-21;
HEADER;
FILE_DESCRIPTION (( 'STEP AP214' ),
    '1' );
FILE_NAME ('76.05.05.0009.step',
    '2021-04-02T17:37:15',
    ( '' ),
    ( '' ),
    'SwSTEP 2.0',
    'SolidWorks 2021',
    '' );
FILE_SCHEMA (( 'AUTOMOTIVE_DESIGN' ));
ENDSEC;

DATA;
#1 = VERTEX_POINT ( 'NONE', #31 ) ;
#2 = EDGE_CURVE ( 'NONE', #96, #96, #47, .T. ) ;
#3 = CARTESIAN_POINT ( 'NONE',  ( 0.000000000000000000, 0.000000000000000000, 0.000000000000000000 ) ) ;
#4 = CARTESIAN_POINT ( 'NONE',  ( 10.50000000000000000, 0.000000000000000000, 1.250000000000000000 ) ) ;
#5 = FACE_OUTER_BOUND ( 'NONE', #98, .T. ) ;
#6 = SURFACE_SIDE_STYLE ('',( #65 ) ) ;
#7 = PRODUCT_DEFINITION_SHAPE ( 'NONE', 'NONE',  #50 ) ;
#8 = EDGE_LOOP ( 'NONE', ( #79 ) ) ;
#9 = EDGE_LOOP ( 'NONE', ( #51 ) ) ;
#10 = VERTEX_POINT ( 'NONE', #4 ) ;
#11 = APPLICATION_CONTEXT ( 'automotive_design' ) ;
#12 = CARTESIAN_POINT ( 'NONE',  ( 0.000000000000000000, 0.000000000000000000, 1.250000000000000000 ) ) ;
#13 = UNCERTAINTY_MEASURE_WITH_UNIT (LENGTH_MEASURE( 1.000000000000000082E-05 ), #84, 'distance_accuracy_value', 'NONE');
#14 =( NAMED_UNIT ( * ) SI_UNIT ( $, .STERADIAN. ) SOLID_ANGLE_UNIT ( ) );
#15 = FILL_AREA_STYLE_COLOUR ( '', #26 ) ;
#16 = ADVANCED_FACE ( 'NONE', ( #5, #39 ), #32, .T. ) ;
#17 = SURFACE_STYLE_FILL_AREA ( #60 ) ;
#18 = CYLINDRICAL_SURFACE ( 'NONE', #112, 10.50000000000000000 ) ;
#19 = CYLINDRICAL_SURFACE ( 'NONE', #64, 16.50000000000000000 ) ;
#20 =( GEOMETRIC_REPRESENTATION_CONTEXT ( 3 ) GLOBAL_UNCERTAINTY_ASSIGNED_CONTEXT ( ( #13 ) ) GLOBAL_UNIT_ASSIGNED_CONTEXT ( ( #84, #74, #14 ) ) REPRESENTATION_CONTEXT ( 'NONE', 'WORKASPACE' ) );
#21 = APPLICATION_PROTOCOL_DEFINITION ( 'draft international standard', 'automotive_design', 1998, #70 ) ;
#22 = PRESENTATION_STYLE_ASSIGNMENT (( #40 ) ) ;
#23 = EDGE_LOOP ( 'NONE', ( #24 ) ) ;
#24 = ORIENTED_EDGE ( 'NONE', *, *, #85, .T. ) ;
#25 = PRODUCT_RELATED_PRODUCT_CATEGORY ( 'part', '', ( #43 ) ) ;
#26 = COLOUR_RGB ( '',0.7764705882352941346, 0.7568627450980391913, 0.7372549019607843590 ) ;
#27 = DIRECTION ( 'NONE',  ( 1.000000000000000000, 0.000000000000000000, -0.000000000000000000 ) ) ;
#28 = DIRECTION ( 'NONE',  ( 1.000000000000000000, 0.000000000000000000, 0.000000000000000000 ) ) ;
#29 = AXIS2_PLACEMENT_3D ( 'NONE', #61, #126, #30 ) ;
#30 = DIRECTION ( 'NONE',  ( 1.000000000000000000, 0.000000000000000000, 0.000000000000000000 ) ) ;
#31 = CARTESIAN_POINT ( 'NONE',  ( 16.50000000000000000, 0.000000000000000000, 1.250000000000000000 ) ) ;
#32 = PLANE ( 'NONE',  #132 ) ;
#33 = FACE_OUTER_BOUND ( 'NONE', #23, .T. ) ;
#34 = COLOUR_RGB ( '',0.7764705882352941346, 0.7568627450980391913, 0.7372549019607843590 ) ;
#35 = EDGE_LOOP ( 'NONE', ( #90 ) ) ;
#36 = CIRCLE ( 'NONE', #80, 16.50000000000000000 ) ;
#37 = EDGE_CURVE ( 'NONE', #75, #75, #72, .T. ) ;
#38 =( NAMED_UNIT ( * ) SI_UNIT ( $, .STERADIAN. ) SOLID_ANGLE_UNIT ( ) );
#39 = FACE_BOUND ( 'NONE', #120, .T. ) ;
#40 = SURFACE_STYLE_USAGE ( .BOTH. , #6 ) ;
#41 = ORIENTED_EDGE ( 'NONE', *, *, #103, .F. ) ;
#42 = ORIENTED_EDGE ( 'NONE', *, *, #103, .T. ) ;
#43 = PRODUCT ( '76.05.05.0009', '76.05.05.0009', '', ( #114 ) ) ;
#44 = EDGE_LOOP ( 'NONE', ( #41 ) ) ;
#45 = PRESENTATION_LAYER_ASSIGNMENT (  '', '', ( #121 ) ) ;
#46 = SURFACE_SIDE_STYLE ('',( #17 ) ) ;
#47 = CIRCLE ( 'NONE', #69, 10.50000000000000000 ) ;
#48 = DIRECTION ( 'NONE',  ( 0.000000000000000000, 0.000000000000000000, 1.000000000000000000 ) ) ;
#49 = DIRECTION ( 'NONE',  ( 0.000000000000000000, 0.000000000000000000, 1.000000000000000000 ) ) ;
#50 = PRODUCT_DEFINITION ( 'UNKNOWN', '', #57, #59 ) ;
#51 = ORIENTED_EDGE ( 'NONE', *, *, #2, .T. ) ;
#52 = PRESENTATION_LAYER_ASSIGNMENT (  '', '', ( #81 ) ) ;
#53 =( GEOMETRIC_REPRESENTATION_CONTEXT ( 3 ) GLOBAL_UNCERTAINTY_ASSIGNED_CONTEXT ( ( #94 ) ) GLOBAL_UNIT_ASSIGNED_CONTEXT ( ( #92, #104, #38 ) ) REPRESENTATION_CONTEXT ( 'NONE', 'WORKASPACE' ) );
#54 = FACE_OUTER_BOUND ( 'NONE', #118, .T. ) ;
#55 =( NAMED_UNIT ( * ) PLANE_ANGLE_UNIT ( ) SI_UNIT ( $, .RADIAN. ) );
#56 = CARTESIAN_POINT ( 'NONE',  ( 10.50000000000000000, 0.000000000000000000, -1.250000000000000000 ) ) ;
#57 = PRODUCT_DEFINITION_FORMATION_WITH_SPECIFIED_SOURCE ( 'ANY', '', #43, .NOT_KNOWN. ) ;
#58 = DIRECTION ( 'NONE',  ( 0.000000000000000000, 0.000000000000000000, 1.000000000000000000 ) ) ;
#59 = PRODUCT_DEFINITION_CONTEXT ( 'detailed design', #11, 'design' ) ;
#60 = FILL_AREA_STYLE ('',( #115 ) ) ;
#61 = CARTESIAN_POINT ( 'NONE',  ( 0.000000000000000000, 0.000000000000000000, 1.250000000000000000 ) ) ;
#62 = CARTESIAN_POINT ( 'NONE',  ( 16.50000000000000000, 0.000000000000000000, -1.250000000000000000 ) ) ;
#63 = CARTESIAN_POINT ( 'NONE',  ( 0.000000000000000000, 0.000000000000000000, -1.250000000000000000 ) ) ;
#64 = AXIS2_PLACEMENT_3D ( 'NONE', #105, #73, #71 ) ;
#65 = SURFACE_STYLE_FILL_AREA ( #78 ) ;
#66 = DIRECTION ( 'NONE',  ( 1.000000000000000000, 0.000000000000000000, 0.000000000000000000 ) ) ;
#67 =( GEOMETRIC_REPRESENTATION_CONTEXT ( 3 ) GLOBAL_UNCERTAINTY_ASSIGNED_CONTEXT ( ( #133 ) ) GLOBAL_UNIT_ASSIGNED_CONTEXT ( ( #108, #55, #102 ) ) REPRESENTATION_CONTEXT ( 'NONE', 'WORKASPACE' ) );
#68 = ORIENTED_EDGE ( 'NONE', *, *, #37, .F. ) ;
#69 = AXIS2_PLACEMENT_3D ( 'NONE', #63, #109, #66 ) ;
#70 = APPLICATION_CONTEXT ( 'automotive_design' ) ;
#71 = DIRECTION ( 'NONE',  ( -1.000000000000000000, 0.000000000000000000, 0.000000000000000000 ) ) ;
#72 = CIRCLE ( 'NONE', #122, 16.50000000000000000 ) ;
#73 = DIRECTION ( 'NONE',  ( -0.000000000000000000, -0.000000000000000000, -1.000000000000000000 ) ) ;
#74 =( NAMED_UNIT ( * ) PLANE_ANGLE_UNIT ( ) SI_UNIT ( $, .RADIAN. ) );
#75 = VERTEX_POINT ( 'NONE', #62 ) ;
#76 = DIRECTION ( 'NONE',  ( -1.000000000000000000, 0.000000000000000000, 0.000000000000000000 ) ) ;
#77 = ORIENTED_EDGE ( 'NONE', *, *, #85, .F. ) ;
#78 = FILL_AREA_STYLE ('',( #15 ) ) ;
#79 = ORIENTED_EDGE ( 'NONE', *, *, #2, .F. ) ;
#80 = AXIS2_PLACEMENT_3D ( 'NONE', #12, #134, #113 ) ;
#81 = STYLED_ITEM ( 'NONE', ( #22 ), #119 ) ;
#82 = CARTESIAN_POINT ( 'NONE',  ( 0.000000000000000000, 0.000000000000000000, 1.250000000000000000 ) ) ;
#83 = CARTESIAN_POINT ( 'NONE',  ( 0.000000000000000000, 0.000000000000000000, -1.250000000000000000 ) ) ;
#84 =( LENGTH_UNIT ( ) NAMED_UNIT ( * ) SI_UNIT ( .MILLI., .METRE. ) );
#85 = EDGE_CURVE ( 'NONE', #10, #10, #101, .T. ) ;
#86 = SHAPE_DEFINITION_REPRESENTATION ( #7, #99 ) ;
#87 = FACE_BOUND ( 'NONE', #9, .T. ) ;
#88 = PLANE ( 'NONE',  #130 ) ;
#89 = AXIS2_PLACEMENT_3D ( 'NONE', #3, #48, #28 ) ;
#90 = ORIENTED_EDGE ( 'NONE', *, *, #37, .T. ) ;
#91 = DIRECTION ( 'NONE',  ( 0.000000000000000000, 0.000000000000000000, 1.000000000000000000 ) ) ;
#92 =( LENGTH_UNIT ( ) NAMED_UNIT ( * ) SI_UNIT ( .MILLI., .METRE. ) );
#93 = ADVANCED_FACE ( 'NONE', ( #116, #123 ), #19, .T. ) ;
#94 = UNCERTAINTY_MEASURE_WITH_UNIT (LENGTH_MEASURE( 1.000000000000000082E-05 ), #92, 'distance_accuracy_value', 'NONE');
#95 = SURFACE_STYLE_USAGE ( .BOTH. , #46 ) ;
#96 = VERTEX_POINT ( 'NONE', #56 ) ;
#97 = CARTESIAN_POINT ( 'NONE',  ( 0.000000000000000000, 0.000000000000000000, -1.250000000000000000 ) ) ;
#98 = EDGE_LOOP ( 'NONE', ( #42 ) ) ;
#99 = ADVANCED_BREP_SHAPE_REPRESENTATION ( '76.05.05.0009', ( #119, #89 ), #53 ) ;
#100 = CLOSED_SHELL ( 'NONE', ( #16, #111, #93, #131 ) ) ;
#101 = CIRCLE ( 'NONE', #29, 10.50000000000000000 ) ;
#102 =( NAMED_UNIT ( * ) SI_UNIT ( $, .STERADIAN. ) SOLID_ANGLE_UNIT ( ) );
#103 = EDGE_CURVE ( 'NONE', #1, #1, #36, .T. ) ;
#104 =( NAMED_UNIT ( * ) PLANE_ANGLE_UNIT ( ) SI_UNIT ( $, .RADIAN. ) );
#105 = CARTESIAN_POINT ( 'NONE',  ( 0.000000000000000000, 0.000000000000000000, 1.250000000000000000 ) ) ;
#106 = APPLICATION_PROTOCOL_DEFINITION ( 'draft international standard', 'automotive_design', 1998, #11 ) ;
#107 = CARTESIAN_POINT ( 'NONE',  ( 0.000000000000000000, 0.000000000000000000, 1.250000000000000000 ) ) ;
#108 =( LENGTH_UNIT ( ) NAMED_UNIT ( * ) SI_UNIT ( .MILLI., .METRE. ) );
#109 = DIRECTION ( 'NONE',  ( 0.000000000000000000, 0.000000000000000000, 1.000000000000000000 ) ) ;
#110 = DIRECTION ( 'NONE',  ( 1.000000000000000000, 0.000000000000000000, -0.000000000000000000 ) ) ;
#111 = ADVANCED_FACE ( 'NONE', ( #54, #87 ), #88, .F. ) ;
#112 = AXIS2_PLACEMENT_3D ( 'NONE', #82, #125, #76 ) ;
#113 = DIRECTION ( 'NONE',  ( 1.000000000000000000, 0.000000000000000000, 0.000000000000000000 ) ) ;
#114 = PRODUCT_CONTEXT ( 'NONE', #70, 'mechanical' ) ;
#115 = FILL_AREA_STYLE_COLOUR ( '', #34 ) ;
#116 = FACE_OUTER_BOUND ( 'NONE', #44, .T. ) ;
#117 = PRESENTATION_STYLE_ASSIGNMENT (( #95 ) ) ;
#118 = EDGE_LOOP ( 'NONE', ( #68 ) ) ;
#119 = MANIFOLD_SOLID_BREP ( 'Boss-Extrude1', #100 ) ;
#120 = EDGE_LOOP ( 'NONE', ( #77 ) ) ;
#121 = STYLED_ITEM ( 'NONE', ( #117 ), #99 ) ;
#122 = AXIS2_PLACEMENT_3D ( 'NONE', #83, #91, #127 ) ;
#123 = FACE_OUTER_BOUND ( 'NONE', #35, .T. ) ;
#124 = MECHANICAL_DESIGN_GEOMETRIC_PRESENTATION_REPRESENTATION (  '', ( #121 ), #20 ) ;
#125 = DIRECTION ( 'NONE',  ( -0.000000000000000000, -0.000000000000000000, -1.000000000000000000 ) ) ;
#126 = DIRECTION ( 'NONE',  ( 0.000000000000000000, 0.000000000000000000, 1.000000000000000000 ) ) ;
#127 = DIRECTION ( 'NONE',  ( 1.000000000000000000, 0.000000000000000000, 0.000000000000000000 ) ) ;
#128 = FACE_OUTER_BOUND ( 'NONE', #8, .T. ) ;
#129 = MECHANICAL_DESIGN_GEOMETRIC_PRESENTATION_REPRESENTATION (  '', ( #81 ), #67 ) ;
#130 = AXIS2_PLACEMENT_3D ( 'NONE', #97, #49, #110 ) ;
#131 = ADVANCED_FACE ( 'NONE', ( #33, #128 ), #18, .F. ) ;
#132 = AXIS2_PLACEMENT_3D ( 'NONE', #107, #58, #27 ) ;
#133 = UNCERTAINTY_MEASURE_WITH_UNIT (LENGTH_MEASURE( 1.000000000000000082E-05 ), #108, 'distance_accuracy_value', 'NONE');
#134 = DIRECTION ( 'NONE',  ( 0.000000000000000000, 0.000000000000000000, 1.000000000000000000 ) ) ;
ENDSEC;
END-ISO-10303-21;
