ISO-10303-21;
HEADER;
FILE_DESCRIPTION (( 'STEP AP214' ),
    '1' );
FILE_NAME ('76.05.05.0007.step',
    '2021-04-02T17:37:13',
    ( '' ),
    ( '' ),
    'SwSTEP 2.0',
    'SolidWorks 2021',
    '' );
FILE_SCHEMA (( 'AUTOMOTIVE_DESIGN' ));
ENDSEC;

DATA;
#1 = DIRECTION ( 'NONE',  ( 0.000000000000000000, 0.000000000000000000, 1.000000000000000000 ) ) ;
#2 = DIRECTION ( 'NONE',  ( 1.000000000000000000, 0.000000000000000000, 0.000000000000000000 ) ) ;
#3 = FACE_OUTER_BOUND ( 'NONE', #80, .T. ) ;
#4 = CARTESIAN_POINT ( 'NONE',  ( 0.000000000000000000, 0.000000000000000000, 1.000000000000000000 ) ) ;
#5 = DIRECTION ( 'NONE',  ( 1.000000000000000000, 0.000000000000000000, -0.000000000000000000 ) ) ;
#6 = FACE_OUTER_BOUND ( 'NONE', #94, .T. ) ;
#7 = CARTESIAN_POINT ( 'NONE',  ( 8.500000000000000000, 0.000000000000000000, -1.000000000000000000 ) ) ;
#8 =( NAMED_UNIT ( * ) SI_UNIT ( $, .STERADIAN. ) SOLID_ANGLE_UNIT ( ) );
#9 = DIRECTION ( 'NONE',  ( 0.000000000000000000, 0.000000000000000000, 1.000000000000000000 ) ) ;
#10 = ADVANCED_FACE ( 'NONE', ( #53, #71 ), #83, .T. ) ;
#11 = CARTESIAN_POINT ( 'NONE',  ( 0.000000000000000000, 0.000000000000000000, 1.000000000000000000 ) ) ;
#12 = STYLED_ITEM ( 'NONE', ( #76 ), #134 ) ;
#13 = SURFACE_STYLE_USAGE ( .BOTH. , #63 ) ;
#14 = EDGE_LOOP ( 'NONE', ( #44 ) ) ;
#15 = EDGE_LOOP ( 'NONE', ( #117 ) ) ;
#16 = ORIENTED_EDGE ( 'NONE', *, *, #101, .T. ) ;
#17 =( LENGTH_UNIT ( ) NAMED_UNIT ( * ) SI_UNIT ( .MILLI., .METRE. ) );
#18 = SURFACE_STYLE_USAGE ( .BOTH. , #123 ) ;
#19 = EDGE_CURVE ( 'NONE', #29, #29, #108, .T. ) ;
#20 =( LENGTH_UNIT ( ) NAMED_UNIT ( * ) SI_UNIT ( .MILLI., .METRE. ) );
#21 = AXIS2_PLACEMENT_3D ( 'NONE', #82, #119, #26 ) ;
#22 = MECHANICAL_DESIGN_GEOMETRIC_PRESENTATION_REPRESENTATION (  '', ( #12 ), #43 ) ;
#23 = CARTESIAN_POINT ( 'NONE',  ( 0.000000000000000000, 0.000000000000000000, -1.000000000000000000 ) ) ;
#24 = EDGE_LOOP ( 'NONE', ( #104 ) ) ;
#25 = UNCERTAINTY_MEASURE_WITH_UNIT (LENGTH_MEASURE( 1.000000000000000082E-05 ), #17, 'distance_accuracy_value', 'NONE');
#26 = DIRECTION ( 'NONE',  ( -1.000000000000000000, 0.000000000000000000, 0.000000000000000000 ) ) ;
#27 = PRESENTATION_LAYER_ASSIGNMENT (  '', '', ( #12 ) ) ;
#28 = SURFACE_STYLE_FILL_AREA ( #38 ) ;
#29 = VERTEX_POINT ( 'NONE', #110 ) ;
#30 = AXIS2_PLACEMENT_3D ( 'NONE', #132, #9, #67 ) ;
#31 = FACE_OUTER_BOUND ( 'NONE', #24, .T. ) ;
#32 = FILL_AREA_STYLE_COLOUR ( '', #100 ) ;
#33 = AXIS2_PLACEMENT_3D ( 'NONE', #4, #102, #5 ) ;
#34 = EDGE_LOOP ( 'NONE', ( #95 ) ) ;
#35 = AXIS2_PLACEMENT_3D ( 'NONE', #23, #46, #2 ) ;
#36 = FACE_OUTER_BOUND ( 'NONE', #34, .T. ) ;
#37 = PRODUCT ( '76.05.05.0007', '76.05.05.0007', '', ( #86 ) ) ;
#38 = FILL_AREA_STYLE ('',( #133 ) ) ;
#39 = CARTESIAN_POINT ( 'NONE',  ( 13.50000000000000000, 0.000000000000000000, 1.000000000000000000 ) ) ;
#40 = CIRCLE ( 'NONE', #61, 13.50000000000000000 ) ;
#41 =( NAMED_UNIT ( * ) PLANE_ANGLE_UNIT ( ) SI_UNIT ( $, .RADIAN. ) );
#42 = EDGE_CURVE ( 'NONE', #97, #97, #120, .T. ) ;
#43 =( GEOMETRIC_REPRESENTATION_CONTEXT ( 3 ) GLOBAL_UNCERTAINTY_ASSIGNED_CONTEXT ( ( #55 ) ) GLOBAL_UNIT_ASSIGNED_CONTEXT ( ( #20, #88, #125 ) ) REPRESENTATION_CONTEXT ( 'NONE', 'WORKASPACE' ) );
#44 = ORIENTED_EDGE ( 'NONE', *, *, #42, .T. ) ;
#45 = PRESENTATION_STYLE_ASSIGNMENT (( #13 ) ) ;
#46 = DIRECTION ( 'NONE',  ( 0.000000000000000000, 0.000000000000000000, 1.000000000000000000 ) ) ;
#47 = DIRECTION ( 'NONE',  ( 0.000000000000000000, 0.000000000000000000, 1.000000000000000000 ) ) ;
#48 = ORIENTED_EDGE ( 'NONE', *, *, #101, .F. ) ;
#49 = CARTESIAN_POINT ( 'NONE',  ( 13.50000000000000000, 0.000000000000000000, -1.000000000000000000 ) ) ;
#50 = APPLICATION_CONTEXT ( 'automotive_design' ) ;
#51 = APPLICATION_PROTOCOL_DEFINITION ( 'draft international standard', 'automotive_design', 1998, #111 ) ;
#52 = CARTESIAN_POINT ( 'NONE',  ( 0.000000000000000000, 0.000000000000000000, 1.000000000000000000 ) ) ;
#53 = FACE_OUTER_BOUND ( 'NONE', #54, .T. ) ;
#54 = EDGE_LOOP ( 'NONE', ( #16 ) ) ;
#55 = UNCERTAINTY_MEASURE_WITH_UNIT (LENGTH_MEASURE( 1.000000000000000082E-05 ), #20, 'distance_accuracy_value', 'NONE');
#56 = ADVANCED_FACE ( 'NONE', ( #3, #36 ), #73, .F. ) ;
#57 = PRODUCT_DEFINITION_SHAPE ( 'NONE', 'NONE',  #84 ) ;
#58 =( NAMED_UNIT ( * ) SI_UNIT ( $, .STERADIAN. ) SOLID_ANGLE_UNIT ( ) );
#59 =( NAMED_UNIT ( * ) PLANE_ANGLE_UNIT ( ) SI_UNIT ( $, .RADIAN. ) );
#60 = AXIS2_PLACEMENT_3D ( 'NONE', #112, #1, #77 ) ;
#61 = AXIS2_PLACEMENT_3D ( 'NONE', #69, #113, #90 ) ;
#62 = ORIENTED_EDGE ( 'NONE', *, *, #19, .T. ) ;
#63 = SURFACE_SIDE_STYLE ('',( #70 ) ) ;
#64 = CARTESIAN_POINT ( 'NONE',  ( 0.000000000000000000, 0.000000000000000000, -1.000000000000000000 ) ) ;
#65 =( GEOMETRIC_REPRESENTATION_CONTEXT ( 3 ) GLOBAL_UNCERTAINTY_ASSIGNED_CONTEXT ( ( #25 ) ) GLOBAL_UNIT_ASSIGNED_CONTEXT ( ( #17, #59, #8 ) ) REPRESENTATION_CONTEXT ( 'NONE', 'WORKASPACE' ) );
#66 = VERTEX_POINT ( 'NONE', #49 ) ;
#67 = DIRECTION ( 'NONE',  ( 1.000000000000000000, 0.000000000000000000, -0.000000000000000000 ) ) ;
#68 = CIRCLE ( 'NONE', #35, 13.50000000000000000 ) ;
#69 = CARTESIAN_POINT ( 'NONE',  ( 0.000000000000000000, 0.000000000000000000, 1.000000000000000000 ) ) ;
#70 = SURFACE_STYLE_FILL_AREA ( #81 ) ;
#71 = FACE_BOUND ( 'NONE', #72, .T. ) ;
#72 = EDGE_LOOP ( 'NONE', ( #91 ) ) ;
#73 = CYLINDRICAL_SURFACE ( 'NONE', #21, 8.500000000000000000 ) ;
#74 = ADVANCED_FACE ( 'NONE', ( #6, #31 ), #103, .T. ) ;
#75 = COLOUR_RGB ( '',0.7764705882352941346, 0.7568627450980391913, 0.7372549019607843590 ) ;
#76 = PRESENTATION_STYLE_ASSIGNMENT (( #18 ) ) ;
#77 = DIRECTION ( 'NONE',  ( 1.000000000000000000, 0.000000000000000000, 0.000000000000000000 ) ) ;
#78 = SHAPE_DEFINITION_REPRESENTATION ( #57, #134 ) ;
#79 = MECHANICAL_DESIGN_GEOMETRIC_PRESENTATION_REPRESENTATION (  '', ( #109 ), #122 ) ;
#80 = EDGE_LOOP ( 'NONE', ( #62 ) ) ;
#81 = FILL_AREA_STYLE ('',( #32 ) ) ;
#82 = CARTESIAN_POINT ( 'NONE',  ( 0.000000000000000000, 0.000000000000000000, 1.000000000000000000 ) ) ;
#83 = PLANE ( 'NONE',  #33 ) ;
#84 = PRODUCT_DEFINITION ( 'UNKNOWN', '', #115, #121 ) ;
#85 = FACE_OUTER_BOUND ( 'NONE', #15, .T. ) ;
#86 = PRODUCT_CONTEXT ( 'NONE', #111, 'mechanical' ) ;
#87 = VERTEX_POINT ( 'NONE', #39 ) ;
#88 =( NAMED_UNIT ( * ) PLANE_ANGLE_UNIT ( ) SI_UNIT ( $, .RADIAN. ) );
#89 = PRESENTATION_LAYER_ASSIGNMENT (  '', '', ( #109 ) ) ;
#90 = DIRECTION ( 'NONE',  ( 1.000000000000000000, 0.000000000000000000, 0.000000000000000000 ) ) ;
#91 = ORIENTED_EDGE ( 'NONE', *, *, #19, .F. ) ;
#92 =( LENGTH_UNIT ( ) NAMED_UNIT ( * ) SI_UNIT ( .MILLI., .METRE. ) );
#93 = CLOSED_SHELL ( 'NONE', ( #10, #127, #74, #56 ) ) ;
#94 = EDGE_LOOP ( 'NONE', ( #48 ) ) ;
#95 = ORIENTED_EDGE ( 'NONE', *, *, #42, .F. ) ;
#96 = FACE_BOUND ( 'NONE', #14, .T. ) ;
#97 = VERTEX_POINT ( 'NONE', #7 ) ;
#98 = PLANE ( 'NONE',  #30 ) ;
#99 = PRODUCT_RELATED_PRODUCT_CATEGORY ( 'part', '', ( #37 ) ) ;
#100 = COLOUR_RGB ( '',0.7764705882352941346, 0.7568627450980391913, 0.7372549019607843590 ) ;
#101 = EDGE_CURVE ( 'NONE', #87, #87, #40, .T. ) ;
#102 = DIRECTION ( 'NONE',  ( 0.000000000000000000, 0.000000000000000000, 1.000000000000000000 ) ) ;
#103 = CYLINDRICAL_SURFACE ( 'NONE', #124, 13.50000000000000000 ) ;
#104 = ORIENTED_EDGE ( 'NONE', *, *, #118, .T. ) ;
#105 = UNCERTAINTY_MEASURE_WITH_UNIT (LENGTH_MEASURE( 1.000000000000000082E-05 ), #92, 'distance_accuracy_value', 'NONE');
#106 = AXIS2_PLACEMENT_3D ( 'NONE', #11, #47, #114 ) ;
#107 = APPLICATION_PROTOCOL_DEFINITION ( 'draft international standard', 'automotive_design', 1998, #50 ) ;
#108 = CIRCLE ( 'NONE', #106, 8.500000000000000000 ) ;
#109 = STYLED_ITEM ( 'NONE', ( #45 ), #126 ) ;
#110 = CARTESIAN_POINT ( 'NONE',  ( 8.500000000000000000, 0.000000000000000000, 1.000000000000000000 ) ) ;
#111 = APPLICATION_CONTEXT ( 'automotive_design' ) ;
#112 = CARTESIAN_POINT ( 'NONE',  ( 0.000000000000000000, 0.000000000000000000, 0.000000000000000000 ) ) ;
#113 = DIRECTION ( 'NONE',  ( 0.000000000000000000, 0.000000000000000000, 1.000000000000000000 ) ) ;
#114 = DIRECTION ( 'NONE',  ( 1.000000000000000000, 0.000000000000000000, 0.000000000000000000 ) ) ;
#115 = PRODUCT_DEFINITION_FORMATION_WITH_SPECIFIED_SOURCE ( 'ANY', '', #37, .NOT_KNOWN. ) ;
#116 = DIRECTION ( 'NONE',  ( 0.000000000000000000, 0.000000000000000000, 1.000000000000000000 ) ) ;
#117 = ORIENTED_EDGE ( 'NONE', *, *, #118, .F. ) ;
#118 = EDGE_CURVE ( 'NONE', #66, #66, #68, .T. ) ;
#119 = DIRECTION ( 'NONE',  ( -0.000000000000000000, -0.000000000000000000, -1.000000000000000000 ) ) ;
#120 = CIRCLE ( 'NONE', #129, 8.500000000000000000 ) ;
#121 = PRODUCT_DEFINITION_CONTEXT ( 'detailed design', #50, 'design' ) ;
#122 =( GEOMETRIC_REPRESENTATION_CONTEXT ( 3 ) GLOBAL_UNCERTAINTY_ASSIGNED_CONTEXT ( ( #105 ) ) GLOBAL_UNIT_ASSIGNED_CONTEXT ( ( #92, #41, #58 ) ) REPRESENTATION_CONTEXT ( 'NONE', 'WORKASPACE' ) );
#123 = SURFACE_SIDE_STYLE ('',( #28 ) ) ;
#124 = AXIS2_PLACEMENT_3D ( 'NONE', #52, #128, #130 ) ;
#125 =( NAMED_UNIT ( * ) SI_UNIT ( $, .STERADIAN. ) SOLID_ANGLE_UNIT ( ) );
#126 = MANIFOLD_SOLID_BREP ( 'Boss-Extrude1', #93 ) ;
#127 = ADVANCED_FACE ( 'NONE', ( #85, #96 ), #98, .F. ) ;
#128 = DIRECTION ( 'NONE',  ( -0.000000000000000000, -0.000000000000000000, -1.000000000000000000 ) ) ;
#129 = AXIS2_PLACEMENT_3D ( 'NONE', #64, #116, #131 ) ;
#130 = DIRECTION ( 'NONE',  ( -1.000000000000000000, 0.000000000000000000, 0.000000000000000000 ) ) ;
#131 = DIRECTION ( 'NONE',  ( 1.000000000000000000, 0.000000000000000000, 0.000000000000000000 ) ) ;
#132 = CARTESIAN_POINT ( 'NONE',  ( 0.000000000000000000, 0.000000000000000000, -1.000000000000000000 ) ) ;
#133 = FILL_AREA_STYLE_COLOUR ( '', #75 ) ;
#134 = ADVANCED_BREP_SHAPE_REPRESENTATION ( '76.05.05.0007', ( #126, #60 ), #65 ) ;
ENDSEC;
END-ISO-10303-21;
