ISO-10303-21;
HEADER;
FILE_DESCRIPTION (( 'STEP AP214' ),
    '1' );
FILE_NAME ('76.05.04.0007.step',
    '2021-04-02T17:36:58',
    ( '' ),
    ( '' ),
    'SwSTEP 2.0',
    'SolidWorks 2021',
    '' );
FILE_SCHEMA (( 'AUTOMOTIVE_DESIGN' ));
ENDSEC;

DATA;
#1 =( GEOMETRIC_REPRESENTATION_CONTEXT ( 3 ) GLOBAL_UNCERTAINTY_ASSIGNED_CONTEXT ( ( #130 ) ) GLOBAL_UNIT_ASSIGNED_CONTEXT ( ( #9, #129, #47 ) ) REPRESENTATION_CONTEXT ( 'NONE', 'WORKASPACE' ) );
#2 = DIRECTION ( 'NONE',  ( 1.000000000000000000, 0.000000000000000000, 0.000000000000000000 ) ) ;
#3 = CARTESIAN_POINT ( 'NONE',  ( 0.000000000000000000, 0.000000000000000000, 1.000000000000000000 ) ) ;
#4 = STYLED_ITEM ( 'NONE', ( #113 ), #69 ) ;
#5 = VERTEX_POINT ( 'NONE', #26 ) ;
#6 = DIRECTION ( 'NONE',  ( 0.000000000000000000, 0.000000000000000000, 1.000000000000000000 ) ) ;
#7 = DIRECTION ( 'NONE',  ( 1.000000000000000000, 0.000000000000000000, -0.000000000000000000 ) ) ;
#8 = SURFACE_STYLE_FILL_AREA ( #36 ) ;
#9 =( LENGTH_UNIT ( ) NAMED_UNIT ( * ) SI_UNIT ( .MILLI., .METRE. ) );
#10 = PRODUCT_CONTEXT ( 'NONE', #55, 'mechanical' ) ;
#11 = EDGE_LOOP ( 'NONE', ( #68 ) ) ;
#12 = AXIS2_PLACEMENT_3D ( 'NONE', #93, #128, #7 ) ;
#13 = EDGE_LOOP ( 'NONE', ( #32 ) ) ;
#14 = ORIENTED_EDGE ( 'NONE', *, *, #44, .F. ) ;
#15 = DIRECTION ( 'NONE',  ( 1.000000000000000000, 0.000000000000000000, 0.000000000000000000 ) ) ;
#16 = FACE_OUTER_BOUND ( 'NONE', #70, .T. ) ;
#17 = FACE_OUTER_BOUND ( 'NONE', #11, .T. ) ;
#18 = VERTEX_POINT ( 'NONE', #53 ) ;
#19 = VERTEX_POINT ( 'NONE', #84 ) ;
#20 = DIRECTION ( 'NONE',  ( -1.000000000000000000, 0.000000000000000000, 0.000000000000000000 ) ) ;
#21 =( GEOMETRIC_REPRESENTATION_CONTEXT ( 3 ) GLOBAL_UNCERTAINTY_ASSIGNED_CONTEXT ( ( #49 ) ) GLOBAL_UNIT_ASSIGNED_CONTEXT ( ( #27, #95, #127 ) ) REPRESENTATION_CONTEXT ( 'NONE', 'WORKASPACE' ) );
#22 = APPLICATION_PROTOCOL_DEFINITION ( 'draft international standard', 'automotive_design', 1998, #55 ) ;
#23 = UNCERTAINTY_MEASURE_WITH_UNIT (LENGTH_MEASURE( 1.000000000000000082E-05 ), #118, 'distance_accuracy_value', 'NONE');
#24 = ORIENTED_EDGE ( 'NONE', *, *, #120, .F. ) ;
#25 = FACE_BOUND ( 'NONE', #102, .T. ) ;
#26 = CARTESIAN_POINT ( 'NONE',  ( 12.00000000000000178, 0.000000000000000000, -1.000000000000000000 ) ) ;
#27 =( LENGTH_UNIT ( ) NAMED_UNIT ( * ) SI_UNIT ( .MILLI., .METRE. ) );
#28 = MECHANICAL_DESIGN_GEOMETRIC_PRESENTATION_REPRESENTATION (  '', ( #89 ), #1 ) ;
#29 =( NAMED_UNIT ( * ) SI_UNIT ( $, .STERADIAN. ) SOLID_ANGLE_UNIT ( ) );
#30 = SURFACE_STYLE_USAGE ( .BOTH. , #71 ) ;
#31 = PRESENTATION_LAYER_ASSIGNMENT (  '', '', ( #89 ) ) ;
#32 = ORIENTED_EDGE ( 'NONE', *, *, #120, .T. ) ;
#33 = CARTESIAN_POINT ( 'NONE',  ( 0.000000000000000000, 0.000000000000000000, 1.000000000000000000 ) ) ;
#34 = DIRECTION ( 'NONE',  ( 1.000000000000000000, 0.000000000000000000, 0.000000000000000000 ) ) ;
#35 = CARTESIAN_POINT ( 'NONE',  ( 0.000000000000000000, 0.000000000000000000, -1.000000000000000000 ) ) ;
#36 = FILL_AREA_STYLE ('',( #109 ) ) ;
#37 = COLOUR_RGB ( '',0.8274509803921568096, 0.8392156862745098200, 0.8274509803921568096 ) ;
#38 = AXIS2_PLACEMENT_3D ( 'NONE', #78, #121, #99 ) ;
#39 = ADVANCED_BREP_SHAPE_REPRESENTATION ( '76.05.04.0007', ( #69, #38 ), #21 ) ;
#40 = PRESENTATION_LAYER_ASSIGNMENT (  '', '', ( #4 ) ) ;
#41 = EDGE_LOOP ( 'NONE', ( #67 ) ) ;
#42 = CARTESIAN_POINT ( 'NONE',  ( 0.000000000000000000, 0.000000000000000000, 1.000000000000000000 ) ) ;
#43 = DIRECTION ( 'NONE',  ( 0.000000000000000000, 0.000000000000000000, 1.000000000000000000 ) ) ;
#44 = EDGE_CURVE ( 'NONE', #5, #5, #50, .T. ) ;
#45 = CARTESIAN_POINT ( 'NONE',  ( 7.500000000000000000, 0.000000000000000000, -1.000000000000000000 ) ) ;
#46 = DIRECTION ( 'NONE',  ( -0.000000000000000000, -0.000000000000000000, -1.000000000000000000 ) ) ;
#47 =( NAMED_UNIT ( * ) SI_UNIT ( $, .STERADIAN. ) SOLID_ANGLE_UNIT ( ) );
#48 = SHAPE_DEFINITION_REPRESENTATION ( #110, #39 ) ;
#49 = UNCERTAINTY_MEASURE_WITH_UNIT (LENGTH_MEASURE( 1.000000000000000082E-05 ), #27, 'distance_accuracy_value', 'NONE');
#50 = CIRCLE ( 'NONE', #88, 12.00000000000000178 ) ;
#51 = PRODUCT_DEFINITION ( 'UNKNOWN', '', #98, #87 ) ;
#52 = CIRCLE ( 'NONE', #57, 12.00000000000000178 ) ;
#53 = CARTESIAN_POINT ( 'NONE',  ( 7.500000000000000000, 0.000000000000000000, 1.000000000000000000 ) ) ;
#54 = CARTESIAN_POINT ( 'NONE',  ( 0.000000000000000000, 0.000000000000000000, -1.000000000000000000 ) ) ;
#55 = APPLICATION_CONTEXT ( 'automotive_design' ) ;
#56 = FACE_OUTER_BOUND ( 'NONE', #122, .T. ) ;
#57 = AXIS2_PLACEMENT_3D ( 'NONE', #42, #6, #34 ) ;
#58 = SURFACE_STYLE_USAGE ( .BOTH. , #132 ) ;
#59 = PRODUCT ( '76.05.04.0007', '76.05.04.0007', '', ( #10 ) ) ;
#60 =( GEOMETRIC_REPRESENTATION_CONTEXT ( 3 ) GLOBAL_UNCERTAINTY_ASSIGNED_CONTEXT ( ( #23 ) ) GLOBAL_UNIT_ASSIGNED_CONTEXT ( ( #118, #114, #29 ) ) REPRESENTATION_CONTEXT ( 'NONE', 'WORKASPACE' ) );
#61 = ORIENTED_EDGE ( 'NONE', *, *, #124, .T. ) ;
#62 = ORIENTED_EDGE ( 'NONE', *, *, #124, .F. ) ;
#63 = CIRCLE ( 'NONE', #111, 7.500000000000000000 ) ;
#64 = EDGE_LOOP ( 'NONE', ( #61 ) ) ;
#65 = FACE_BOUND ( 'NONE', #41, .T. ) ;
#66 = APPLICATION_CONTEXT ( 'automotive_design' ) ;
#67 = ORIENTED_EDGE ( 'NONE', *, *, #86, .T. ) ;
#68 = ORIENTED_EDGE ( 'NONE', *, *, #44, .T. ) ;
#69 = MANIFOLD_SOLID_BREP ( 'Boss-Extrude1', #116 ) ;
#70 = EDGE_LOOP ( 'NONE', ( #14 ) ) ;
#71 = SURFACE_SIDE_STYLE ('',( #134 ) ) ;
#72 = AXIS2_PLACEMENT_3D ( 'NONE', #3, #83, #115 ) ;
#73 = DIRECTION ( 'NONE',  ( 1.000000000000000000, 0.000000000000000000, -0.000000000000000000 ) ) ;
#74 = CYLINDRICAL_SURFACE ( 'NONE', #72, 12.00000000000000178 ) ;
#75 = COLOUR_RGB ( '',0.8274509803921568096, 0.8392156862745098200, 0.8274509803921568096 ) ;
#76 = PRESENTATION_STYLE_ASSIGNMENT (( #58 ) ) ;
#77 = ADVANCED_FACE ( 'NONE', ( #104, #25 ), #91, .T. ) ;
#78 = CARTESIAN_POINT ( 'NONE',  ( 0.000000000000000000, 0.000000000000000000, 0.000000000000000000 ) ) ;
#79 = EDGE_LOOP ( 'NONE', ( #62 ) ) ;
#80 = PRODUCT_RELATED_PRODUCT_CATEGORY ( 'part', '', ( #59 ) ) ;
#81 = MECHANICAL_DESIGN_GEOMETRIC_PRESENTATION_REPRESENTATION (  '', ( #4 ), #60 ) ;
#82 = FACE_OUTER_BOUND ( 'NONE', #79, .T. ) ;
#83 = DIRECTION ( 'NONE',  ( -0.000000000000000000, -0.000000000000000000, -1.000000000000000000 ) ) ;
#84 = CARTESIAN_POINT ( 'NONE',  ( 12.00000000000000178, 0.000000000000000000, 1.000000000000000000 ) ) ;
#85 = DIRECTION ( 'NONE',  ( 0.000000000000000000, 0.000000000000000000, 1.000000000000000000 ) ) ;
#86 = EDGE_CURVE ( 'NONE', #106, #106, #119, .T. ) ;
#87 = PRODUCT_DEFINITION_CONTEXT ( 'detailed design', #66, 'design' ) ;
#88 = AXIS2_PLACEMENT_3D ( 'NONE', #103, #90, #15 ) ;
#89 = STYLED_ITEM ( 'NONE', ( #76 ), #39 ) ;
#90 = DIRECTION ( 'NONE',  ( 0.000000000000000000, 0.000000000000000000, 1.000000000000000000 ) ) ;
#91 = PLANE ( 'NONE',  #12 ) ;
#92 = CARTESIAN_POINT ( 'NONE',  ( 0.000000000000000000, 0.000000000000000000, 1.000000000000000000 ) ) ;
#93 = CARTESIAN_POINT ( 'NONE',  ( 0.000000000000000000, 0.000000000000000000, 1.000000000000000000 ) ) ;
#94 = FACE_OUTER_BOUND ( 'NONE', #13, .T. ) ;
#95 =( NAMED_UNIT ( * ) PLANE_ANGLE_UNIT ( ) SI_UNIT ( $, .RADIAN. ) );
#96 = PLANE ( 'NONE',  #117 ) ;
#97 = APPLICATION_PROTOCOL_DEFINITION ( 'draft international standard', 'automotive_design', 1998, #66 ) ;
#98 = PRODUCT_DEFINITION_FORMATION_WITH_SPECIFIED_SOURCE ( 'ANY', '', #59, .NOT_KNOWN. ) ;
#99 = DIRECTION ( 'NONE',  ( 1.000000000000000000, 0.000000000000000000, 0.000000000000000000 ) ) ;
#100 = ADVANCED_FACE ( 'NONE', ( #16, #65 ), #96, .F. ) ;
#101 = AXIS2_PLACEMENT_3D ( 'NONE', #33, #46, #20 ) ;
#102 = EDGE_LOOP ( 'NONE', ( #24 ) ) ;
#103 = CARTESIAN_POINT ( 'NONE',  ( 0.000000000000000000, 0.000000000000000000, -1.000000000000000000 ) ) ;
#104 = FACE_OUTER_BOUND ( 'NONE', #64, .T. ) ;
#105 = CYLINDRICAL_SURFACE ( 'NONE', #101, 7.500000000000000000 ) ;
#106 = VERTEX_POINT ( 'NONE', #45 ) ;
#107 = DIRECTION ( 'NONE',  ( 1.000000000000000000, 0.000000000000000000, 0.000000000000000000 ) ) ;
#108 = ADVANCED_FACE ( 'NONE', ( #94, #56 ), #105, .F. ) ;
#109 = FILL_AREA_STYLE_COLOUR ( '', #75 ) ;
#110 = PRODUCT_DEFINITION_SHAPE ( 'NONE', 'NONE',  #51 ) ;
#111 = AXIS2_PLACEMENT_3D ( 'NONE', #92, #126, #2 ) ;
#112 = ORIENTED_EDGE ( 'NONE', *, *, #86, .F. ) ;
#113 = PRESENTATION_STYLE_ASSIGNMENT (( #30 ) ) ;
#114 =( NAMED_UNIT ( * ) PLANE_ANGLE_UNIT ( ) SI_UNIT ( $, .RADIAN. ) );
#115 = DIRECTION ( 'NONE',  ( -1.000000000000000000, 0.000000000000000000, 0.000000000000000000 ) ) ;
#116 = CLOSED_SHELL ( 'NONE', ( #77, #100, #131, #108 ) ) ;
#117 = AXIS2_PLACEMENT_3D ( 'NONE', #35, #43, #73 ) ;
#118 =( LENGTH_UNIT ( ) NAMED_UNIT ( * ) SI_UNIT ( .MILLI., .METRE. ) );
#119 = CIRCLE ( 'NONE', #133, 7.500000000000000000 ) ;
#120 = EDGE_CURVE ( 'NONE', #18, #18, #63, .T. ) ;
#121 = DIRECTION ( 'NONE',  ( 0.000000000000000000, 0.000000000000000000, 1.000000000000000000 ) ) ;
#122 = EDGE_LOOP ( 'NONE', ( #112 ) ) ;
#123 = FILL_AREA_STYLE_COLOUR ( '', #37 ) ;
#124 = EDGE_CURVE ( 'NONE', #19, #19, #52, .T. ) ;
#125 = FILL_AREA_STYLE ('',( #123 ) ) ;
#126 = DIRECTION ( 'NONE',  ( 0.000000000000000000, 0.000000000000000000, 1.000000000000000000 ) ) ;
#127 =( NAMED_UNIT ( * ) SI_UNIT ( $, .STERADIAN. ) SOLID_ANGLE_UNIT ( ) );
#128 = DIRECTION ( 'NONE',  ( 0.000000000000000000, 0.000000000000000000, 1.000000000000000000 ) ) ;
#129 =( NAMED_UNIT ( * ) PLANE_ANGLE_UNIT ( ) SI_UNIT ( $, .RADIAN. ) );
#130 = UNCERTAINTY_MEASURE_WITH_UNIT (LENGTH_MEASURE( 1.000000000000000082E-05 ), #9, 'distance_accuracy_value', 'NONE');
#131 = ADVANCED_FACE ( 'NONE', ( #82, #17 ), #74, .T. ) ;
#132 = SURFACE_SIDE_STYLE ('',( #8 ) ) ;
#133 = AXIS2_PLACEMENT_3D ( 'NONE', #54, #85, #107 ) ;
#134 = SURFACE_STYLE_FILL_AREA ( #125 ) ;
ENDSEC;
END-ISO-10303-21;
