ISO-10303-21;
HEADER;
FILE_DESCRIPTION (( 'STEP AP214' ),
    '1' );
FILE_NAME ('76.05.04.0002.step',
    '2021-04-02T17:36:53',
    ( '' ),
    ( '' ),
    'SwSTEP 2.0',
    'SolidWorks 2021',
    '' );
FILE_SCHEMA (( 'AUTOMOTIVE_DESIGN' ));
ENDSEC;

DATA;
#1 = ADVANCED_FACE ( 'NONE', ( #100, #77 ), #54, .F. ) ;
#2 = CARTESIAN_POINT ( 'NONE',  ( 0.000000000000000000, 0.000000000000000000, 0.5000000000000000000 ) ) ;
#3 = PLANE ( 'NONE',  #12 ) ;
#4 = VERTEX_POINT ( 'NONE', #41 ) ;
#5 = PRESENTATION_LAYER_ASSIGNMENT (  '', '', ( #35 ) ) ;
#6 = SURFACE_STYLE_FILL_AREA ( #21 ) ;
#7 = COLOUR_RGB ( '',0.8274509803921568096, 0.8392156862745098200, 0.8274509803921568096 ) ;
#8 = EDGE_CURVE ( 'NONE', #4, #4, #37, .T. ) ;
#9 = MECHANICAL_DESIGN_GEOMETRIC_PRESENTATION_REPRESENTATION (  '', ( #35 ), #78 ) ;
#10 = ORIENTED_EDGE ( 'NONE', *, *, #47, .T. ) ;
#11 = PRODUCT_DEFINITION_CONTEXT ( 'detailed design', #115, 'design' ) ;
#12 = AXIS2_PLACEMENT_3D ( 'NONE', #32, #93, #64 ) ;
#13 = ADVANCED_FACE ( 'NONE', ( #26, #48 ), #90, .T. ) ;
#14 = CARTESIAN_POINT ( 'NONE',  ( 0.000000000000000000, 0.000000000000000000, 0.5000000000000000000 ) ) ;
#15 = FACE_OUTER_BOUND ( 'NONE', #87, .T. ) ;
#16 = SURFACE_STYLE_USAGE ( .BOTH. , #104 ) ;
#17 = MANIFOLD_SOLID_BREP ( 'Boss-Extrude1', #119 ) ;
#18 = DIRECTION ( 'NONE',  ( -1.000000000000000000, 0.000000000000000000, 0.000000000000000000 ) ) ;
#19 = AXIS2_PLACEMENT_3D ( 'NONE', #22, #60, #122 ) ;
#20 = PRODUCT ( '76.05.04.0002', '76.05.04.0002', '', ( #132 ) ) ;
#21 = FILL_AREA_STYLE ('',( #59 ) ) ;
#22 = CARTESIAN_POINT ( 'NONE',  ( 0.000000000000000000, 0.000000000000000000, 0.000000000000000000 ) ) ;
#23 = PRODUCT_DEFINITION_FORMATION_WITH_SPECIFIED_SOURCE ( 'ANY', '', #20, .NOT_KNOWN. ) ;
#24 = CIRCLE ( 'NONE', #85, 4.750000000000000000 ) ;
#25 = APPLICATION_CONTEXT ( 'automotive_design' ) ;
#26 = FACE_OUTER_BOUND ( 'NONE', #108, .T. ) ;
#27 = ORIENTED_EDGE ( 'NONE', *, *, #98, .F. ) ;
#28 = FILL_AREA_STYLE_COLOUR ( '', #76 ) ;
#29 =( NAMED_UNIT ( * ) SI_UNIT ( $, .STERADIAN. ) SOLID_ANGLE_UNIT ( ) );
#30 = SURFACE_STYLE_FILL_AREA ( #83 ) ;
#31 = CARTESIAN_POINT ( 'NONE',  ( 0.000000000000000000, 0.000000000000000000, 0.5000000000000000000 ) ) ;
#32 = CARTESIAN_POINT ( 'NONE',  ( 0.000000000000000000, 0.000000000000000000, 0.5000000000000000000 ) ) ;
#33 = AXIS2_PLACEMENT_3D ( 'NONE', #38, #70, #110 ) ;
#34 = APPLICATION_PROTOCOL_DEFINITION ( 'draft international standard', 'automotive_design', 1998, #115 ) ;
#35 = STYLED_ITEM ( 'NONE', ( #99 ), #92 ) ;
#36 = DIRECTION ( 'NONE',  ( 1.000000000000000000, 0.000000000000000000, -0.000000000000000000 ) ) ;
#37 = CIRCLE ( 'NONE', #33, 4.750000000000000000 ) ;
#38 = CARTESIAN_POINT ( 'NONE',  ( 0.000000000000000000, 0.000000000000000000, -0.5000000000000000000 ) ) ;
#39 = UNCERTAINTY_MEASURE_WITH_UNIT (LENGTH_MEASURE( 1.000000000000000082E-05 ), #82, 'distance_accuracy_value', 'NONE');
#40 = VERTEX_POINT ( 'NONE', #67 ) ;
#41 = CARTESIAN_POINT ( 'NONE',  ( 4.750000000000000000, 0.000000000000000000, -0.5000000000000000000 ) ) ;
#42 = DIRECTION ( 'NONE',  ( 0.000000000000000000, 0.000000000000000000, 1.000000000000000000 ) ) ;
#43 = CARTESIAN_POINT ( 'NONE',  ( 2.649999999999999911, 0.000000000000000000, 0.5000000000000000000 ) ) ;
#44 = STYLED_ITEM ( 'NONE', ( #50 ), #17 ) ;
#45 = ORIENTED_EDGE ( 'NONE', *, *, #98, .T. ) ;
#46 = EDGE_LOOP ( 'NONE', ( #55 ) ) ;
#47 = EDGE_CURVE ( 'NONE', #51, #51, #101, .T. ) ;
#48 = FACE_OUTER_BOUND ( 'NONE', #86, .T. ) ;
#49 = DIRECTION ( 'NONE',  ( -0.000000000000000000, -0.000000000000000000, -1.000000000000000000 ) ) ;
#50 = PRESENTATION_STYLE_ASSIGNMENT (( #16 ) ) ;
#51 = VERTEX_POINT ( 'NONE', #43 ) ;
#52 = SURFACE_STYLE_USAGE ( .BOTH. , #68 ) ;
#53 = AXIS2_PLACEMENT_3D ( 'NONE', #65, #114, #94 ) ;
#54 = PLANE ( 'NONE',  #69 ) ;
#55 = ORIENTED_EDGE ( 'NONE', *, *, #8, .F. ) ;
#56 =( NAMED_UNIT ( * ) SI_UNIT ( $, .STERADIAN. ) SOLID_ANGLE_UNIT ( ) );
#57 = FACE_BOUND ( 'NONE', #123, .T. ) ;
#58 =( LENGTH_UNIT ( ) NAMED_UNIT ( * ) SI_UNIT ( .MILLI., .METRE. ) );
#59 = FILL_AREA_STYLE_COLOUR ( '', #7 ) ;
#60 = DIRECTION ( 'NONE',  ( 0.000000000000000000, 0.000000000000000000, 1.000000000000000000 ) ) ;
#61 = EDGE_LOOP ( 'NONE', ( #27 ) ) ;
#62 = ORIENTED_EDGE ( 'NONE', *, *, #72, .T. ) ;
#63 = ORIENTED_EDGE ( 'NONE', *, *, #47, .F. ) ;
#64 = DIRECTION ( 'NONE',  ( 1.000000000000000000, 0.000000000000000000, -0.000000000000000000 ) ) ;
#65 = CARTESIAN_POINT ( 'NONE',  ( 0.000000000000000000, 0.000000000000000000, 0.5000000000000000000 ) ) ;
#66 =( GEOMETRIC_REPRESENTATION_CONTEXT ( 3 ) GLOBAL_UNCERTAINTY_ASSIGNED_CONTEXT ( ( #39 ) ) GLOBAL_UNIT_ASSIGNED_CONTEXT ( ( #82, #103, #56 ) ) REPRESENTATION_CONTEXT ( 'NONE', 'WORKASPACE' ) );
#67 = CARTESIAN_POINT ( 'NONE',  ( 2.649999999999999911, 0.000000000000000000, -0.5000000000000000000 ) ) ;
#68 = SURFACE_SIDE_STYLE ('',( #6 ) ) ;
#69 = AXIS2_PLACEMENT_3D ( 'NONE', #133, #124, #36 ) ;
#70 = DIRECTION ( 'NONE',  ( 0.000000000000000000, 0.000000000000000000, 1.000000000000000000 ) ) ;
#71 =( NAMED_UNIT ( * ) PLANE_ANGLE_UNIT ( ) SI_UNIT ( $, .RADIAN. ) );
#72 = EDGE_CURVE ( 'NONE', #74, #74, #24, .T. ) ;
#73 = CYLINDRICAL_SURFACE ( 'NONE', #127, 2.649999999999999911 ) ;
#74 = VERTEX_POINT ( 'NONE', #116 ) ;
#75 = SHAPE_DEFINITION_REPRESENTATION ( #97, #92 ) ;
#76 = COLOUR_RGB ( '',0.8274509803921568096, 0.8392156862745098200, 0.8274509803921568096 ) ;
#77 = FACE_BOUND ( 'NONE', #79, .T. ) ;
#78 =( GEOMETRIC_REPRESENTATION_CONTEXT ( 3 ) GLOBAL_UNCERTAINTY_ASSIGNED_CONTEXT ( ( #106 ) ) GLOBAL_UNIT_ASSIGNED_CONTEXT ( ( #84, #117, #121 ) ) REPRESENTATION_CONTEXT ( 'NONE', 'WORKASPACE' ) );
#79 = EDGE_LOOP ( 'NONE', ( #45 ) ) ;
#80 = DIRECTION ( 'NONE',  ( -0.000000000000000000, -0.000000000000000000, -1.000000000000000000 ) ) ;
#81 = CARTESIAN_POINT ( 'NONE',  ( 0.000000000000000000, 0.000000000000000000, -0.5000000000000000000 ) ) ;
#82 =( LENGTH_UNIT ( ) NAMED_UNIT ( * ) SI_UNIT ( .MILLI., .METRE. ) );
#83 = FILL_AREA_STYLE ('',( #28 ) ) ;
#84 =( LENGTH_UNIT ( ) NAMED_UNIT ( * ) SI_UNIT ( .MILLI., .METRE. ) );
#85 = AXIS2_PLACEMENT_3D ( 'NONE', #2, #42, #130 ) ;
#86 = EDGE_LOOP ( 'NONE', ( #134 ) ) ;
#87 = EDGE_LOOP ( 'NONE', ( #10 ) ) ;
#88 = DIRECTION ( 'NONE',  ( -1.000000000000000000, 0.000000000000000000, 0.000000000000000000 ) ) ;
#89 = AXIS2_PLACEMENT_3D ( 'NONE', #14, #49, #88 ) ;
#90 = CYLINDRICAL_SURFACE ( 'NONE', #89, 4.750000000000000000 ) ;
#91 = FACE_OUTER_BOUND ( 'NONE', #61, .T. ) ;
#92 = ADVANCED_BREP_SHAPE_REPRESENTATION ( '76.05.04.0002', ( #17, #19 ), #95 ) ;
#93 = DIRECTION ( 'NONE',  ( 0.000000000000000000, 0.000000000000000000, 1.000000000000000000 ) ) ;
#94 = DIRECTION ( 'NONE',  ( 1.000000000000000000, 0.000000000000000000, 0.000000000000000000 ) ) ;
#95 =( GEOMETRIC_REPRESENTATION_CONTEXT ( 3 ) GLOBAL_UNCERTAINTY_ASSIGNED_CONTEXT ( ( #131 ) ) GLOBAL_UNIT_ASSIGNED_CONTEXT ( ( #58, #71, #29 ) ) REPRESENTATION_CONTEXT ( 'NONE', 'WORKASPACE' ) );
#96 = ADVANCED_FACE ( 'NONE', ( #15, #91 ), #73, .F. ) ;
#97 = PRODUCT_DEFINITION_SHAPE ( 'NONE', 'NONE',  #102 ) ;
#98 = EDGE_CURVE ( 'NONE', #40, #40, #113, .T. ) ;
#99 = PRESENTATION_STYLE_ASSIGNMENT (( #52 ) ) ;
#100 = FACE_OUTER_BOUND ( 'NONE', #46, .T. ) ;
#101 = CIRCLE ( 'NONE', #53, 2.649999999999999911 ) ;
#102 = PRODUCT_DEFINITION ( 'UNKNOWN', '', #23, #11 ) ;
#103 =( NAMED_UNIT ( * ) PLANE_ANGLE_UNIT ( ) SI_UNIT ( $, .RADIAN. ) );
#104 = SURFACE_SIDE_STYLE ('',( #30 ) ) ;
#105 = DIRECTION ( 'NONE',  ( 1.000000000000000000, 0.000000000000000000, 0.000000000000000000 ) ) ;
#106 = UNCERTAINTY_MEASURE_WITH_UNIT (LENGTH_MEASURE( 1.000000000000000082E-05 ), #84, 'distance_accuracy_value', 'NONE');
#107 = PRESENTATION_LAYER_ASSIGNMENT (  '', '', ( #44 ) ) ;
#108 = EDGE_LOOP ( 'NONE', ( #111 ) ) ;
#109 = MECHANICAL_DESIGN_GEOMETRIC_PRESENTATION_REPRESENTATION (  '', ( #44 ), #66 ) ;
#110 = DIRECTION ( 'NONE',  ( 1.000000000000000000, 0.000000000000000000, 0.000000000000000000 ) ) ;
#111 = ORIENTED_EDGE ( 'NONE', *, *, #72, .F. ) ;
#112 = EDGE_LOOP ( 'NONE', ( #62 ) ) ;
#113 = CIRCLE ( 'NONE', #129, 2.649999999999999911 ) ;
#114 = DIRECTION ( 'NONE',  ( 0.000000000000000000, 0.000000000000000000, 1.000000000000000000 ) ) ;
#115 = APPLICATION_CONTEXT ( 'automotive_design' ) ;
#116 = CARTESIAN_POINT ( 'NONE',  ( 4.750000000000000000, 0.000000000000000000, 0.5000000000000000000 ) ) ;
#117 =( NAMED_UNIT ( * ) PLANE_ANGLE_UNIT ( ) SI_UNIT ( $, .RADIAN. ) );
#118 = APPLICATION_PROTOCOL_DEFINITION ( 'draft international standard', 'automotive_design', 1998, #25 ) ;
#119 = CLOSED_SHELL ( 'NONE', ( #125, #1, #13, #96 ) ) ;
#120 = PRODUCT_RELATED_PRODUCT_CATEGORY ( 'part', '', ( #20 ) ) ;
#121 =( NAMED_UNIT ( * ) SI_UNIT ( $, .STERADIAN. ) SOLID_ANGLE_UNIT ( ) );
#122 = DIRECTION ( 'NONE',  ( 1.000000000000000000, 0.000000000000000000, 0.000000000000000000 ) ) ;
#123 = EDGE_LOOP ( 'NONE', ( #63 ) ) ;
#124 = DIRECTION ( 'NONE',  ( 0.000000000000000000, 0.000000000000000000, 1.000000000000000000 ) ) ;
#125 = ADVANCED_FACE ( 'NONE', ( #128, #57 ), #3, .T. ) ;
#126 = DIRECTION ( 'NONE',  ( 0.000000000000000000, 0.000000000000000000, 1.000000000000000000 ) ) ;
#127 = AXIS2_PLACEMENT_3D ( 'NONE', #31, #80, #18 ) ;
#128 = FACE_OUTER_BOUND ( 'NONE', #112, .T. ) ;
#129 = AXIS2_PLACEMENT_3D ( 'NONE', #81, #126, #105 ) ;
#130 = DIRECTION ( 'NONE',  ( 1.000000000000000000, 0.000000000000000000, 0.000000000000000000 ) ) ;
#131 = UNCERTAINTY_MEASURE_WITH_UNIT (LENGTH_MEASURE( 1.000000000000000082E-05 ), #58, 'distance_accuracy_value', 'NONE');
#132 = PRODUCT_CONTEXT ( 'NONE', #25, 'mechanical' ) ;
#133 = CARTESIAN_POINT ( 'NONE',  ( 0.000000000000000000, 0.000000000000000000, -0.5000000000000000000 ) ) ;
#134 = ORIENTED_EDGE ( 'NONE', *, *, #8, .T. ) ;
ENDSEC;
END-ISO-10303-21;
