ISO-10303-21;
HEADER;
FILE_DESCRIPTION (( 'STEP AP214' ),
    '1' );
FILE_NAME ('76.05.04.0001.step',
    '2021-04-02T17:36:51',
    ( '' ),
    ( '' ),
    'SwSTEP 2.0',
    'SolidWorks 2021',
    '' );
FILE_SCHEMA (( 'AUTOMOTIVE_DESIGN' ));
ENDSEC;

DATA;
#1 = CARTESIAN_POINT ( 'NONE',  ( 0.000000000000000000, 0.000000000000000000, 0.4000000000000000222 ) ) ;
#2 = STYLED_ITEM ( 'NONE', ( #7 ), #9 ) ;
#3 = FACE_OUTER_BOUND ( 'NONE', #70, .T. ) ;
#4 = DIRECTION ( 'NONE',  ( 0.000000000000000000, 0.000000000000000000, 1.000000000000000000 ) ) ;
#5 = EDGE_LOOP ( 'NONE', ( #59 ) ) ;
#6 = PRODUCT_DEFINITION_SHAPE ( 'NONE', 'NONE',  #14 ) ;
#7 = PRESENTATION_STYLE_ASSIGNMENT (( #26 ) ) ;
#8 = UNCERTAINTY_MEASURE_WITH_UNIT (LENGTH_MEASURE( 1.000000000000000082E-05 ), #123, 'distance_accuracy_value', 'NONE');
#9 = MANIFOLD_SOLID_BREP ( 'Boss-Extrude1', #101 ) ;
#10 = MECHANICAL_DESIGN_GEOMETRIC_PRESENTATION_REPRESENTATION (  '', ( #2 ), #89 ) ;
#11 = PLANE ( 'NONE',  #121 ) ;
#12 = VERTEX_POINT ( 'NONE', #84 ) ;
#13 = DIRECTION ( 'NONE',  ( -1.000000000000000000, 0.000000000000000000, 0.000000000000000000 ) ) ;
#14 = PRODUCT_DEFINITION ( 'UNKNOWN', '', #118, #32 ) ;
#15 = APPLICATION_PROTOCOL_DEFINITION ( 'draft international standard', 'automotive_design', 1998, #61 ) ;
#16 = EDGE_CURVE ( 'NONE', #44, #44, #82, .T. ) ;
#17 = FILL_AREA_STYLE ('',( #103 ) ) ;
#18 = CIRCLE ( 'NONE', #63, 2.149999999999999911 ) ;
#19 =( NAMED_UNIT ( * ) PLANE_ANGLE_UNIT ( ) SI_UNIT ( $, .RADIAN. ) );
#20 = FACE_OUTER_BOUND ( 'NONE', #5, .T. ) ;
#21 = DIRECTION ( 'NONE',  ( 0.000000000000000000, 0.000000000000000000, 1.000000000000000000 ) ) ;
#22 = DIRECTION ( 'NONE',  ( 1.000000000000000000, 0.000000000000000000, -0.000000000000000000 ) ) ;
#23 = DIRECTION ( 'NONE',  ( 1.000000000000000000, 0.000000000000000000, 0.000000000000000000 ) ) ;
#24 = EDGE_CURVE ( 'NONE', #12, #12, #27, .T. ) ;
#25 = EDGE_LOOP ( 'NONE', ( #53 ) ) ;
#26 = SURFACE_STYLE_USAGE ( .BOTH. , #120 ) ;
#27 = CIRCLE ( 'NONE', #105, 2.149999999999999911 ) ;
#28 = EDGE_LOOP ( 'NONE', ( #129 ) ) ;
#29 = CARTESIAN_POINT ( 'NONE',  ( 0.000000000000000000, 0.000000000000000000, 0.4000000000000000222 ) ) ;
#30 = DIRECTION ( 'NONE',  ( 1.000000000000000000, 0.000000000000000000, 0.000000000000000000 ) ) ;
#31 = FACE_OUTER_BOUND ( 'NONE', #28, .T. ) ;
#32 = PRODUCT_DEFINITION_CONTEXT ( 'detailed design', #40, 'design' ) ;
#33 = DIRECTION ( 'NONE',  ( 0.000000000000000000, 0.000000000000000000, 1.000000000000000000 ) ) ;
#34 = CARTESIAN_POINT ( 'NONE',  ( 0.000000000000000000, 0.000000000000000000, 0.000000000000000000 ) ) ;
#35 = FILL_AREA_STYLE ('',( #117 ) ) ;
#36 = PRODUCT_CONTEXT ( 'NONE', #61, 'mechanical' ) ;
#37 =( NAMED_UNIT ( * ) SI_UNIT ( $, .STERADIAN. ) SOLID_ANGLE_UNIT ( ) );
#38 = ORIENTED_EDGE ( 'NONE', *, *, #114, .F. ) ;
#39 = SURFACE_STYLE_FILL_AREA ( #17 ) ;
#40 = APPLICATION_CONTEXT ( 'automotive_design' ) ;
#41 = AXIS2_PLACEMENT_3D ( 'NONE', #116, #57, #30 ) ;
#42 = PRESENTATION_LAYER_ASSIGNMENT (  '', '', ( #108 ) ) ;
#43 = ADVANCED_FACE ( 'NONE', ( #3, #85 ), #11, .F. ) ;
#44 = VERTEX_POINT ( 'NONE', #96 ) ;
#45 =( NAMED_UNIT ( * ) SI_UNIT ( $, .STERADIAN. ) SOLID_ANGLE_UNIT ( ) );
#46 = AXIS2_PLACEMENT_3D ( 'NONE', #119, #21, #83 ) ;
#47 = CYLINDRICAL_SURFACE ( 'NONE', #86, 3.750000000000000000 ) ;
#48 = DIRECTION ( 'NONE',  ( -0.000000000000000000, -0.000000000000000000, -1.000000000000000000 ) ) ;
#49 =( NAMED_UNIT ( * ) PLANE_ANGLE_UNIT ( ) SI_UNIT ( $, .RADIAN. ) );
#50 = PRESENTATION_STYLE_ASSIGNMENT (( #130 ) ) ;
#51 = ADVANCED_BREP_SHAPE_REPRESENTATION ( '76.05.04.0001', ( #9, #54 ), #125 ) ;
#52 = ORIENTED_EDGE ( 'NONE', *, *, #24, .F. ) ;
#53 = ORIENTED_EDGE ( 'NONE', *, *, #76, .F. ) ;
#54 = AXIS2_PLACEMENT_3D ( 'NONE', #34, #4, #23 ) ;
#55 = DIRECTION ( 'NONE',  ( 1.000000000000000000, 0.000000000000000000, -0.000000000000000000 ) ) ;
#56 =( NAMED_UNIT ( * ) PLANE_ANGLE_UNIT ( ) SI_UNIT ( $, .RADIAN. ) );
#57 = DIRECTION ( 'NONE',  ( 0.000000000000000000, 0.000000000000000000, 1.000000000000000000 ) ) ;
#58 =( LENGTH_UNIT ( ) NAMED_UNIT ( * ) SI_UNIT ( .MILLI., .METRE. ) );
#59 = ORIENTED_EDGE ( 'NONE', *, *, #16, .F. ) ;
#60 = EDGE_LOOP ( 'NONE', ( #93 ) ) ;
#61 = APPLICATION_CONTEXT ( 'automotive_design' ) ;
#62 = CARTESIAN_POINT ( 'NONE',  ( 0.000000000000000000, 0.000000000000000000, -0.4000000000000000222 ) ) ;
#63 = AXIS2_PLACEMENT_3D ( 'NONE', #1, #98, #107 ) ;
#64 = MECHANICAL_DESIGN_GEOMETRIC_PRESENTATION_REPRESENTATION (  '', ( #108 ), #80 ) ;
#65 = DIRECTION ( 'NONE',  ( -1.000000000000000000, 0.000000000000000000, 0.000000000000000000 ) ) ;
#66 = CARTESIAN_POINT ( 'NONE',  ( 3.750000000000000000, 0.000000000000000000, -0.4000000000000000222 ) ) ;
#67 = VERTEX_POINT ( 'NONE', #66 ) ;
#68 = APPLICATION_PROTOCOL_DEFINITION ( 'draft international standard', 'automotive_design', 1998, #40 ) ;
#69 = COLOUR_RGB ( '',0.8274509803921568096, 0.8392156862745098200, 0.8274509803921568096 ) ;
#70 = EDGE_LOOP ( 'NONE', ( #38 ) ) ;
#71 = SURFACE_STYLE_FILL_AREA ( #35 ) ;
#72 = VERTEX_POINT ( 'NONE', #99 ) ;
#73 = ADVANCED_FACE ( 'NONE', ( #20, #31 ), #47, .T. ) ;
#74 = PLANE ( 'NONE',  #109 ) ;
#75 = DIRECTION ( 'NONE',  ( 0.000000000000000000, 0.000000000000000000, 1.000000000000000000 ) ) ;
#76 = EDGE_CURVE ( 'NONE', #72, #72, #18, .T. ) ;
#77 = EDGE_LOOP ( 'NONE', ( #110 ) ) ;
#78 = CIRCLE ( 'NONE', #41, 3.750000000000000000 ) ;
#79 =( LENGTH_UNIT ( ) NAMED_UNIT ( * ) SI_UNIT ( .MILLI., .METRE. ) );
#80 =( GEOMETRIC_REPRESENTATION_CONTEXT ( 3 ) GLOBAL_UNCERTAINTY_ASSIGNED_CONTEXT ( ( #131 ) ) GLOBAL_UNIT_ASSIGNED_CONTEXT ( ( #58, #49, #37 ) ) REPRESENTATION_CONTEXT ( 'NONE', 'WORKASPACE' ) );
#81 = PRODUCT ( '76.05.04.0001', '76.05.04.0001', '', ( #36 ) ) ;
#82 = CIRCLE ( 'NONE', #46, 3.750000000000000000 ) ;
#83 = DIRECTION ( 'NONE',  ( 1.000000000000000000, 0.000000000000000000, 0.000000000000000000 ) ) ;
#84 = CARTESIAN_POINT ( 'NONE',  ( 2.149999999999999911, 0.000000000000000000, -0.4000000000000000222 ) ) ;
#85 = FACE_BOUND ( 'NONE', #77, .T. ) ;
#86 = AXIS2_PLACEMENT_3D ( 'NONE', #29, #134, #13 ) ;
#87 = FACE_OUTER_BOUND ( 'NONE', #112, .T. ) ;
#88 = FACE_BOUND ( 'NONE', #25, .T. ) ;
#89 =( GEOMETRIC_REPRESENTATION_CONTEXT ( 3 ) GLOBAL_UNCERTAINTY_ASSIGNED_CONTEXT ( ( #92 ) ) GLOBAL_UNIT_ASSIGNED_CONTEXT ( ( #79, #19, #104 ) ) REPRESENTATION_CONTEXT ( 'NONE', 'WORKASPACE' ) );
#90 = SHAPE_DEFINITION_REPRESENTATION ( #6, #51 ) ;
#91 = EDGE_LOOP ( 'NONE', ( #132 ) ) ;
#92 = UNCERTAINTY_MEASURE_WITH_UNIT (LENGTH_MEASURE( 1.000000000000000082E-05 ), #79, 'distance_accuracy_value', 'NONE');
#93 = ORIENTED_EDGE ( 'NONE', *, *, #76, .T. ) ;
#94 = COLOUR_RGB ( '',0.8274509803921568096, 0.8392156862745098200, 0.8274509803921568096 ) ;
#95 = FACE_OUTER_BOUND ( 'NONE', #91, .T. ) ;
#96 = CARTESIAN_POINT ( 'NONE',  ( 3.750000000000000000, 0.000000000000000000, 0.4000000000000000222 ) ) ;
#97 = CARTESIAN_POINT ( 'NONE',  ( 0.000000000000000000, 0.000000000000000000, -0.4000000000000000222 ) ) ;
#98 = DIRECTION ( 'NONE',  ( 0.000000000000000000, 0.000000000000000000, 1.000000000000000000 ) ) ;
#99 = CARTESIAN_POINT ( 'NONE',  ( 2.149999999999999911, 0.000000000000000000, 0.4000000000000000222 ) ) ;
#100 = AXIS2_PLACEMENT_3D ( 'NONE', #115, #48, #65 ) ;
#101 = CLOSED_SHELL ( 'NONE', ( #126, #43, #73, #111 ) ) ;
#102 = PRODUCT_RELATED_PRODUCT_CATEGORY ( 'part', '', ( #81 ) ) ;
#103 = FILL_AREA_STYLE_COLOUR ( '', #94 ) ;
#104 =( NAMED_UNIT ( * ) SI_UNIT ( $, .STERADIAN. ) SOLID_ANGLE_UNIT ( ) );
#105 = AXIS2_PLACEMENT_3D ( 'NONE', #62, #33, #127 ) ;
#106 = CYLINDRICAL_SURFACE ( 'NONE', #100, 2.149999999999999911 ) ;
#107 = DIRECTION ( 'NONE',  ( 1.000000000000000000, 0.000000000000000000, 0.000000000000000000 ) ) ;
#108 = STYLED_ITEM ( 'NONE', ( #50 ), #51 ) ;
#109 = AXIS2_PLACEMENT_3D ( 'NONE', #124, #133, #22 ) ;
#110 = ORIENTED_EDGE ( 'NONE', *, *, #24, .T. ) ;
#111 = ADVANCED_FACE ( 'NONE', ( #122, #87 ), #106, .F. ) ;
#112 = EDGE_LOOP ( 'NONE', ( #52 ) ) ;
#113 = PRESENTATION_LAYER_ASSIGNMENT (  '', '', ( #2 ) ) ;
#114 = EDGE_CURVE ( 'NONE', #67, #67, #78, .T. ) ;
#115 = CARTESIAN_POINT ( 'NONE',  ( 0.000000000000000000, 0.000000000000000000, 0.4000000000000000222 ) ) ;
#116 = CARTESIAN_POINT ( 'NONE',  ( 0.000000000000000000, 0.000000000000000000, -0.4000000000000000222 ) ) ;
#117 = FILL_AREA_STYLE_COLOUR ( '', #69 ) ;
#118 = PRODUCT_DEFINITION_FORMATION_WITH_SPECIFIED_SOURCE ( 'ANY', '', #81, .NOT_KNOWN. ) ;
#119 = CARTESIAN_POINT ( 'NONE',  ( 0.000000000000000000, 0.000000000000000000, 0.4000000000000000222 ) ) ;
#120 = SURFACE_SIDE_STYLE ('',( #39 ) ) ;
#121 = AXIS2_PLACEMENT_3D ( 'NONE', #97, #75, #55 ) ;
#122 = FACE_OUTER_BOUND ( 'NONE', #60, .T. ) ;
#123 =( LENGTH_UNIT ( ) NAMED_UNIT ( * ) SI_UNIT ( .MILLI., .METRE. ) );
#124 = CARTESIAN_POINT ( 'NONE',  ( 0.000000000000000000, 0.000000000000000000, 0.4000000000000000222 ) ) ;
#125 =( GEOMETRIC_REPRESENTATION_CONTEXT ( 3 ) GLOBAL_UNCERTAINTY_ASSIGNED_CONTEXT ( ( #8 ) ) GLOBAL_UNIT_ASSIGNED_CONTEXT ( ( #123, #56, #45 ) ) REPRESENTATION_CONTEXT ( 'NONE', 'WORKASPACE' ) );
#126 = ADVANCED_FACE ( 'NONE', ( #95, #88 ), #74, .T. ) ;
#127 = DIRECTION ( 'NONE',  ( 1.000000000000000000, 0.000000000000000000, 0.000000000000000000 ) ) ;
#128 = SURFACE_SIDE_STYLE ('',( #71 ) ) ;
#129 = ORIENTED_EDGE ( 'NONE', *, *, #114, .T. ) ;
#130 = SURFACE_STYLE_USAGE ( .BOTH. , #128 ) ;
#131 = UNCERTAINTY_MEASURE_WITH_UNIT (LENGTH_MEASURE( 1.000000000000000082E-05 ), #58, 'distance_accuracy_value', 'NONE');
#132 = ORIENTED_EDGE ( 'NONE', *, *, #16, .T. ) ;
#133 = DIRECTION ( 'NONE',  ( 0.000000000000000000, 0.000000000000000000, 1.000000000000000000 ) ) ;
#134 = DIRECTION ( 'NONE',  ( -0.000000000000000000, -0.000000000000000000, -1.000000000000000000 ) ) ;
ENDSEC;
END-ISO-10303-21;
