ISO-10303-21;
HEADER;
FILE_DESCRIPTION (( 'STEP AP214' ),
    '1' );
FILE_NAME ('76.04.07.0005.step',
    '2021-04-02T18:04:45',
    ( '' ),
    ( '' ),
    'SwSTEP 2.0',
    'SolidWorks 2021',
    '' );
FILE_SCHEMA (( 'AUTOMOTIVE_DESIGN' ));
ENDSEC;

DATA;
#1 = DIRECTION ( 'NONE',  ( 0.000000000000000000, 0.000000000000000000, 1.000000000000000000 ) ) ;
#2 = AXIS2_PLACEMENT_3D ( 'NONE', #58, #121, #214 ) ;
#3 = DIRECTION ( 'NONE',  ( 1.000000000000000000, 0.000000000000000000, 0.000000000000000000 ) ) ;
#4 = DIRECTION ( 'NONE',  ( -0.000000000000000000, 0.000000000000000000, 1.000000000000000000 ) ) ;
#5 = MECHANICAL_DESIGN_GEOMETRIC_PRESENTATION_REPRESENTATION (  '', ( #246 ), #22 ) ;
#6 = DIRECTION ( 'NONE',  ( -1.000000000000000000, -0.000000000000000000, -0.000000000000000000 ) ) ;
#7 = ORIENTED_EDGE ( 'NONE', *, *, #154, .F. ) ;
#8 = DIRECTION ( 'NONE',  ( 0.000000000000000000, 0.000000000000000000, 1.000000000000000000 ) ) ;
#9 = DIRECTION ( 'NONE',  ( -1.000000000000000000, -0.000000000000000000, -0.000000000000000000 ) ) ;
#10 = VERTEX_POINT ( 'NONE', #21 ) ;
#11 = DIRECTION ( 'NONE',  ( 0.000000000000000000, 0.000000000000000000, 1.000000000000000000 ) ) ;
#12 = ORIENTED_EDGE ( 'NONE', *, *, #259, .F. ) ;
#13 = DIRECTION ( 'NONE',  ( 1.000000000000000000, 0.000000000000000000, 0.000000000000000000 ) ) ;
#14 =( NAMED_UNIT ( * ) SI_UNIT ( $, .STERADIAN. ) SOLID_ANGLE_UNIT ( ) );
#15 =( GEOMETRIC_REPRESENTATION_CONTEXT ( 3 ) GLOBAL_UNCERTAINTY_ASSIGNED_CONTEXT ( ( #215 ) ) GLOBAL_UNIT_ASSIGNED_CONTEXT ( ( #227, #55, #187 ) ) REPRESENTATION_CONTEXT ( 'NONE', 'WORKASPACE' ) );
#16 = ADVANCED_FACE ( 'NONE', ( #126, #63 ), #220, .T. ) ;
#17 = CARTESIAN_POINT ( 'NONE',  ( -19.50000000000000000, 0.000000000000000000, 0.000000000000000000 ) ) ;
#18 = VERTEX_POINT ( 'NONE', #120 ) ;
#19 = FACE_OUTER_BOUND ( 'NONE', #267, .T. ) ;
#20 = CIRCLE ( 'NONE', #99, 8.000000000000000000 ) ;
#21 = CARTESIAN_POINT ( 'NONE',  ( 18.50000000000000000, 0.000000000000000000, 8.000000000000000000 ) ) ;
#22 =( GEOMETRIC_REPRESENTATION_CONTEXT ( 3 ) GLOBAL_UNCERTAINTY_ASSIGNED_CONTEXT ( ( #131 ) ) GLOBAL_UNIT_ASSIGNED_CONTEXT ( ( #202, #293, #23 ) ) REPRESENTATION_CONTEXT ( 'NONE', 'WORKASPACE' ) );
#23 =( NAMED_UNIT ( * ) SI_UNIT ( $, .STERADIAN. ) SOLID_ANGLE_UNIT ( ) );
#24 = CARTESIAN_POINT ( 'NONE',  ( 19.50000000000000000, 0.000000000000000000, 7.422649730810366719 ) ) ;
#25 = FACE_BOUND ( 'NONE', #90, .T. ) ;
#26 = CARTESIAN_POINT ( 'NONE',  ( 16.25000000000000355, 0.000000000000000000, 8.000000000000000000 ) ) ;
#27 = CARTESIAN_POINT ( 'NONE',  ( 16.25000000000000355, 0.000000000000000000, 0.000000000000000000 ) ) ;
#28 = FACE_BOUND ( 'NONE', #231, .T. ) ;
#29 = CARTESIAN_POINT ( 'NONE',  ( 17.34999999999999432, 0.000000000000000000, 0.000000000000000000 ) ) ;
#30 = DIRECTION ( 'NONE',  ( 0.000000000000000000, 0.000000000000000000, 1.000000000000000000 ) ) ;
#31 = EDGE_LOOP ( 'NONE', ( #56 ) ) ;
#32 = CARTESIAN_POINT ( 'NONE',  ( 19.50000000000000000, 0.000000000000000000, 0.000000000000000000 ) ) ;
#33 = ORIENTED_EDGE ( 'NONE', *, *, #207, .T. ) ;
#34 = CIRCLE ( 'NONE', #41, 7.600000000000000533 ) ;
#35 = FACE_OUTER_BOUND ( 'NONE', #124, .T. ) ;
#36 = EDGE_LOOP ( 'NONE', ( #33 ) ) ;
#37 = CARTESIAN_POINT ( 'NONE',  ( -16.25000000000000000, 0.000000000000000000, 7.999999999999996447 ) ) ;
#38 = FACE_OUTER_BOUND ( 'NONE', #69, .T. ) ;
#39 = DIRECTION ( 'NONE',  ( -1.000000000000000000, -0.000000000000000000, -0.000000000000000000 ) ) ;
#40 = ORIENTED_EDGE ( 'NONE', *, *, #42, .F. ) ;
#41 = AXIS2_PLACEMENT_3D ( 'NONE', #80, #6, #83 ) ;
#42 = EDGE_CURVE ( 'NONE', #88, #88, #268, .T. ) ;
#43 = CARTESIAN_POINT ( 'NONE',  ( -17.34999999999999787, 0.000000000000000000, 7.999999999999996447 ) ) ;
#44 = AXIS2_PLACEMENT_3D ( 'NONE', #29, #236, #62 ) ;
#45 = DIRECTION ( 'NONE',  ( 0.000000000000000000, 0.000000000000000000, -1.000000000000000000 ) ) ;
#46 = CARTESIAN_POINT ( 'NONE',  ( 0.000000000000000000, 0.000000000000000000, 0.000000000000000000 ) ) ;
#47 = CARTESIAN_POINT ( 'NONE',  ( 19.50000000000000000, 0.000000000000000000, 0.000000000000000000 ) ) ;
#48 = APPLICATION_PROTOCOL_DEFINITION ( 'draft international standard', 'automotive_design', 1998, #284 ) ;
#49 = CARTESIAN_POINT ( 'NONE',  ( 17.34999999999999787, 8.000000000000000000, 0.000000000000000000 ) ) ;
#50 = VERTEX_POINT ( 'NONE', #43 ) ;
#51 = FILL_AREA_STYLE ('',( #118 ) ) ;
#52 = COLOUR_RGB ( '',0.7764705882352941346, 0.7568627450980391913, 0.7372549019607843590 ) ;
#53 = ADVANCED_FACE ( 'NONE', ( #112, #128 ), #85, .T. ) ;
#54 = EDGE_CURVE ( 'NONE', #198, #198, #104, .T. ) ;
#55 =( NAMED_UNIT ( * ) PLANE_ANGLE_UNIT ( ) SI_UNIT ( $, .RADIAN. ) );
#56 = ORIENTED_EDGE ( 'NONE', *, *, #54, .T. ) ;
#57 = PRODUCT_DEFINITION ( 'UNKNOWN', '', #235, #192 ) ;
#58 = CARTESIAN_POINT ( 'NONE',  ( -19.50000000000000000, 0.000000000000000000, 0.000000000000000000 ) ) ;
#59 = DIRECTION ( 'NONE',  ( -1.000000000000000000, -0.000000000000000000, -0.000000000000000000 ) ) ;
#60 = ADVANCED_FACE ( 'NONE', ( #225, #67 ), #177, .F. ) ;
#61 = AXIS2_PLACEMENT_3D ( 'NONE', #219, #172, #271 ) ;
#62 = DIRECTION ( 'NONE',  ( 0.000000000000000000, 0.000000000000000000, 1.000000000000000000 ) ) ;
#63 = FACE_OUTER_BOUND ( 'NONE', #148, .T. ) ;
#64 = AXIS2_PLACEMENT_3D ( 'NONE', #46, #135, #254 ) ;
#65 = PLANE ( 'NONE',  #153 ) ;
#66 = CARTESIAN_POINT ( 'NONE',  ( 17.35000000000000142, 0.000000000000000000, 0.000000000000000000 ) ) ;
#67 = FACE_OUTER_BOUND ( 'NONE', #193, .T. ) ;
#68 = AXIS2_PLACEMENT_3D ( 'NONE', #146, #222, #191 ) ;
#69 = EDGE_LOOP ( 'NONE', ( #195 ) ) ;
#70 = AXIS2_PLACEMENT_3D ( 'NONE', #66, #39, #294 ) ;
#71 = PRESENTATION_LAYER_ASSIGNMENT (  '', '', ( #246 ) ) ;
#72 = CIRCLE ( 'NONE', #101, 7.999999999999994671 ) ;
#73 = PLANE ( 'NONE',  #151 ) ;
#74 = ADVANCED_FACE ( 'NONE', ( #134, #255 ), #115, .T. ) ;
#75 = DIRECTION ( 'NONE',  ( -1.000000000000000000, -0.000000000000000000, -0.000000000000000000 ) ) ;
#76 = VERTEX_POINT ( 'NONE', #24 ) ;
#77 = PRESENTATION_LAYER_ASSIGNMENT (  '', '', ( #197 ) ) ;
#78 = DIRECTION ( 'NONE',  ( -0.000000000000000000, 0.000000000000000000, 1.000000000000000000 ) ) ;
#79 = DIRECTION ( 'NONE',  ( -1.000000000000000000, -0.000000000000000000, -0.000000000000000000 ) ) ;
#80 = CARTESIAN_POINT ( 'NONE',  ( 16.25000000000000355, 0.000000000000000000, 0.000000000000000000 ) ) ;
#81 = EDGE_LOOP ( 'NONE', ( #239 ) ) ;
#82 = CLOSED_SHELL ( 'NONE', ( #213, #203, #123, #152, #16, #209, #53, #60, #74, #95, #266, #175, #242 ) ) ;
#83 = DIRECTION ( 'NONE',  ( 0.000000000000000000, 0.000000000000000000, 1.000000000000000000 ) ) ;
#84 = EDGE_LOOP ( 'NONE', ( #189 ) ) ;
#85 = CYLINDRICAL_SURFACE ( 'NONE', #68, 7.999999999999998224 ) ;
#86 = CARTESIAN_POINT ( 'NONE',  ( 17.35000000000000142, 0.000000000000000000, 7.599999999999998757 ) ) ;
#87 = MANIFOLD_SOLID_BREP ( 'Revolve1', #82 ) ;
#88 = VERTEX_POINT ( 'NONE', #86 ) ;
#89 = CARTESIAN_POINT ( 'NONE',  ( -19.50000000000000000, 0.000000000000000000, 7.422649730810366719 ) ) ;
#90 = EDGE_LOOP ( 'NONE', ( #40 ) ) ;
#91 = ORIENTED_EDGE ( 'NONE', *, *, #206, .F. ) ;
#92 = EDGE_CURVE ( 'NONE', #243, #243, #110, .T. ) ;
#93 = VERTEX_POINT ( 'NONE', #274 ) ;
#94 = DIRECTION ( 'NONE',  ( -1.000000000000000000, 0.000000000000000000, -0.000000000000000000 ) ) ;
#95 = ADVANCED_FACE ( 'NONE', ( #19, #28 ), #73, .F. ) ;
#96 = DIRECTION ( 'NONE',  ( 0.000000000000000000, 0.000000000000000000, -1.000000000000000000 ) ) ;
#97 = AXIS2_PLACEMENT_3D ( 'NONE', #106, #13, #45 ) ;
#98 = EDGE_LOOP ( 'NONE', ( #258 ) ) ;
#99 = AXIS2_PLACEMENT_3D ( 'NONE', #275, #295, #179 ) ;
#100 = DIRECTION ( 'NONE',  ( -1.000000000000000000, -0.000000000000000000, -0.000000000000000000 ) ) ;
#101 = AXIS2_PLACEMENT_3D ( 'NONE', #190, #143, #30 ) ;
#102 = DIRECTION ( 'NONE',  ( -0.000000000000000000, 0.000000000000000000, 1.000000000000000000 ) ) ;
#103 = CARTESIAN_POINT ( 'NONE',  ( -17.35000000000000142, 0.000000000000000000, 0.000000000000000000 ) ) ;
#104 = CIRCLE ( 'NONE', #61, 7.422649730810366719 ) ;
#105 = CIRCLE ( 'NONE', #217, 7.599999999999996092 ) ;
#106 = CARTESIAN_POINT ( 'NONE',  ( -16.25000000000000000, 7.999999999999996447, 0.000000000000000000 ) ) ;
#107 = DIRECTION ( 'NONE',  ( 0.000000000000000000, 0.000000000000000000, 1.000000000000000000 ) ) ;
#108 = EDGE_LOOP ( 'NONE', ( #149 ) ) ;
#109 = ORIENTED_EDGE ( 'NONE', *, *, #173, .F. ) ;
#110 = CIRCLE ( 'NONE', #145, 7.999999999999996447 ) ;
#111 = EDGE_CURVE ( 'NONE', #10, #10, #20, .T. ) ;
#112 = FACE_OUTER_BOUND ( 'NONE', #81, .T. ) ;
#113 = PRESENTATION_STYLE_ASSIGNMENT (( #182 ) ) ;
#114 = MECHANICAL_DESIGN_GEOMETRIC_PRESENTATION_REPRESENTATION (  '', ( #197 ), #15 ) ;
#115 = CYLINDRICAL_SURFACE ( 'NONE', #200, 7.599999999999996092 ) ;
#116 = PRODUCT_RELATED_PRODUCT_CATEGORY ( 'part', '', ( #270 ) ) ;
#117 = CIRCLE ( 'NONE', #240, 7.422649730810366719 ) ;
#118 = FILL_AREA_STYLE_COLOUR ( '', #238 ) ;
#119 = DIRECTION ( 'NONE',  ( 0.000000000000000000, 0.000000000000000000, 1.000000000000000000 ) ) ;
#120 = CARTESIAN_POINT ( 'NONE',  ( 16.25000000000000355, 0.000000000000000000, 7.600000000000000533 ) ) ;
#121 = DIRECTION ( 'NONE',  ( -1.000000000000000000, -0.000000000000000000, -0.000000000000000000 ) ) ;
#122 = EDGE_LOOP ( 'NONE', ( #288 ) ) ;
#123 = ADVANCED_FACE ( 'NONE', ( #181, #282 ), #256, .T. ) ;
#124 = EDGE_LOOP ( 'NONE', ( #109 ) ) ;
#125 = DIRECTION ( 'NONE',  ( -1.000000000000000000, 0.000000000000000000, -0.000000000000000000 ) ) ;
#126 = FACE_OUTER_BOUND ( 'NONE', #84, .T. ) ;
#127 = DIRECTION ( 'NONE',  ( 0.000000000000000000, 0.000000000000000000, -1.000000000000000000 ) ) ;
#128 = FACE_OUTER_BOUND ( 'NONE', #122, .T. ) ;
#129 = EDGE_LOOP ( 'NONE', ( #290 ) ) ;
#130 = AXIS2_PLACEMENT_3D ( 'NONE', #103, #79, #11 ) ;
#131 = UNCERTAINTY_MEASURE_WITH_UNIT (LENGTH_MEASURE( 1.000000000000000082E-05 ), #202, 'distance_accuracy_value', 'NONE');
#132 = FILL_AREA_STYLE ('',( #139 ) ) ;
#133 = AXIS2_PLACEMENT_3D ( 'NONE', #170, #59, #8 ) ;
#134 = FACE_OUTER_BOUND ( 'NONE', #108, .T. ) ;
#135 = DIRECTION ( 'NONE',  ( 0.000000000000000000, 0.000000000000000000, 1.000000000000000000 ) ) ;
#136 = FACE_OUTER_BOUND ( 'NONE', #171, .T. ) ;
#137 = PRODUCT_CONTEXT ( 'NONE', #284, 'mechanical' ) ;
#138 = PRESENTATION_STYLE_ASSIGNMENT (( #165 ) ) ;
#139 = FILL_AREA_STYLE_COLOUR ( '', #52 ) ;
#140 = CARTESIAN_POINT ( 'NONE',  ( -17.34999999999999787, 0.000000000000000000, 0.000000000000000000 ) ) ;
#141 = FACE_BOUND ( 'NONE', #237, .T. ) ;
#142 = DIRECTION ( 'NONE',  ( 0.000000000000000000, 0.000000000000000000, 1.000000000000000000 ) ) ;
#143 = DIRECTION ( 'NONE',  ( -1.000000000000000000, -0.000000000000000000, -0.000000000000000000 ) ) ;
#144 = DIRECTION ( 'NONE',  ( 1.000000000000000000, 0.000000000000000000, 0.000000000000000000 ) ) ;
#145 = AXIS2_PLACEMENT_3D ( 'NONE', #251, #279, #298 ) ;
#146 = CARTESIAN_POINT ( 'NONE',  ( -19.50000000000000000, 0.000000000000000000, 0.000000000000000000 ) ) ;
#147 = CIRCLE ( 'NONE', #286, 8.000000000000000000 ) ;
#148 = EDGE_LOOP ( 'NONE', ( #247 ) ) ;
#149 = ORIENTED_EDGE ( 'NONE', *, *, #261, .F. ) ;
#150 = EDGE_LOOP ( 'NONE', ( #168 ) ) ;
#151 = AXIS2_PLACEMENT_3D ( 'NONE', #234, #94, #102 ) ;
#152 = ADVANCED_FACE ( 'NONE', ( #25, #186 ), #163, .F. ) ;
#153 = AXIS2_PLACEMENT_3D ( 'NONE', #166, #144, #127 ) ;
#154 = EDGE_CURVE ( 'NONE', #50, #50, #245, .T. ) ;
#155 = AXIS2_PLACEMENT_3D ( 'NONE', #17, #9, #107 ) ;
#156 = ORIENTED_EDGE ( 'NONE', *, *, #54, .F. ) ;
#157 = VERTEX_POINT ( 'NONE', #205 ) ;
#158 = DIRECTION ( 'NONE',  ( 0.000000000000000000, 0.000000000000000000, -1.000000000000000000 ) ) ;
#159 = AXIS2_PLACEMENT_3D ( 'NONE', #277, #100, #1 ) ;
#160 = CARTESIAN_POINT ( 'NONE',  ( -17.35000000000000142, 0.000000000000000000, 7.599999999999995204 ) ) ;
#161 = DIRECTION ( 'NONE',  ( 0.000000000000000000, 0.000000000000000000, 1.000000000000000000 ) ) ;
#162 = DIRECTION ( 'NONE',  ( -1.000000000000000000, -0.000000000000000000, -0.000000000000000000 ) ) ;
#163 = PLANE ( 'NONE',  #265 ) ;
#164 = APPLICATION_CONTEXT ( 'automotive_design' ) ;
#165 = SURFACE_STYLE_USAGE ( .BOTH. , #184 ) ;
#166 = CARTESIAN_POINT ( 'NONE',  ( -19.50000000000000000, 7.422649730810366719, 0.000000000000000000 ) ) ;
#167 = EDGE_CURVE ( 'NONE', #76, #76, #117, .T. ) ;
#168 = ORIENTED_EDGE ( 'NONE', *, *, #228, .T. ) ;
#169 = ORIENTED_EDGE ( 'NONE', *, *, #111, .T. ) ;
#170 = CARTESIAN_POINT ( 'NONE',  ( 19.50000000000000000, 0.000000000000000000, 0.000000000000000000 ) ) ;
#171 = EDGE_LOOP ( 'NONE', ( #264 ) ) ;
#172 = DIRECTION ( 'NONE',  ( -1.000000000000000000, -0.000000000000000000, -0.000000000000000000 ) ) ;
#173 = EDGE_CURVE ( 'NONE', #232, #232, #147, .T. ) ;
#174 = PRODUCT_DEFINITION_SHAPE ( 'NONE', 'NONE',  #57 ) ;
#175 = ADVANCED_FACE ( 'NONE', ( #141, #208 ), #229, .T. ) ;
#176 =( NAMED_UNIT ( * ) PLANE_ANGLE_UNIT ( ) SI_UNIT ( $, .RADIAN. ) );
#177 = PLANE ( 'NONE',  #97 ) ;
#178 = EDGE_LOOP ( 'NONE', ( #196 ) ) ;
#179 = DIRECTION ( 'NONE',  ( 0.000000000000000000, 0.000000000000000000, 1.000000000000000000 ) ) ;
#180 = ADVANCED_BREP_SHAPE_REPRESENTATION ( '76.04.07.0005', ( #87, #64 ), #194 ) ;
#181 = FACE_OUTER_BOUND ( 'NONE', #224, .T. ) ;
#182 = SURFACE_STYLE_USAGE ( .BOTH. , #252 ) ;
#183 = CARTESIAN_POINT ( 'NONE',  ( 17.34999999999999432, 0.000000000000000000, 8.000000000000000000 ) ) ;
#184 = SURFACE_SIDE_STYLE ('',( #201 ) ) ;
#185 = CONICAL_SURFACE ( 'NONE', #133, 7.422649730810366719, 0.5235987755983040337 ) ;
#186 = FACE_OUTER_BOUND ( 'NONE', #98, .T. ) ;
#187 =( NAMED_UNIT ( * ) SI_UNIT ( $, .STERADIAN. ) SOLID_ANGLE_UNIT ( ) );
#188 = FACE_OUTER_BOUND ( 'NONE', #291, .T. ) ;
#189 = ORIENTED_EDGE ( 'NONE', *, *, #228, .F. ) ;
#190 = CARTESIAN_POINT ( 'NONE',  ( -18.50000000000000000, 0.000000000000000000, 0.000000000000000000 ) ) ;
#191 = DIRECTION ( 'NONE',  ( 0.000000000000000000, 0.000000000000000000, 1.000000000000000000 ) ) ;
#192 = PRODUCT_DEFINITION_CONTEXT ( 'detailed design', #164, 'design' ) ;
#193 = EDGE_LOOP ( 'NONE', ( #292 ) ) ;
#194 =( GEOMETRIC_REPRESENTATION_CONTEXT ( 3 ) GLOBAL_UNCERTAINTY_ASSIGNED_CONTEXT ( ( #296 ) ) GLOBAL_UNIT_ASSIGNED_CONTEXT ( ( #281, #176, #14 ) ) REPRESENTATION_CONTEXT ( 'NONE', 'WORKASPACE' ) );
#195 = ORIENTED_EDGE ( 'NONE', *, *, #167, .F. ) ;
#196 = ORIENTED_EDGE ( 'NONE', *, *, #154, .T. ) ;
#197 = STYLED_ITEM ( 'NONE', ( #138 ), #87 ) ;
#198 = VERTEX_POINT ( 'NONE', #89 ) ;
#199 = EDGE_LOOP ( 'NONE', ( #91 ) ) ;
#200 = AXIS2_PLACEMENT_3D ( 'NONE', #210, #230, #161 ) ;
#201 = SURFACE_STYLE_FILL_AREA ( #51 ) ;
#202 =( LENGTH_UNIT ( ) NAMED_UNIT ( * ) SI_UNIT ( .MILLI., .METRE. ) );
#203 = ADVANCED_FACE ( 'NONE', ( #136, #226 ), #185, .T. ) ;
#204 = CIRCLE ( 'NONE', #44, 8.000000000000000000 ) ;
#205 = CARTESIAN_POINT ( 'NONE',  ( -18.50000000000000000, 0.000000000000000000, 7.999999999999994671 ) ) ;
#206 = EDGE_CURVE ( 'NONE', #93, #93, #105, .T. ) ;
#207 = EDGE_CURVE ( 'NONE', #157, #157, #72, .T. ) ;
#208 = FACE_OUTER_BOUND ( 'NONE', #36, .T. ) ;
#209 = ADVANCED_FACE ( 'NONE', ( #35, #289 ), #260, .F. ) ;
#210 = CARTESIAN_POINT ( 'NONE',  ( -19.50000000000000000, 0.000000000000000000, 0.000000000000000000 ) ) ;
#211 = AXIS2_PLACEMENT_3D ( 'NONE', #299, #3, #96 ) ;
#212 = DIRECTION ( 'NONE',  ( 0.000000000000000000, 0.000000000000000000, 1.000000000000000000 ) ) ;
#213 = ADVANCED_FACE ( 'NONE', ( #38 ), #263, .F. ) ;
#214 = DIRECTION ( 'NONE',  ( 0.000000000000000000, 0.000000000000000000, 1.000000000000000000 ) ) ;
#215 = UNCERTAINTY_MEASURE_WITH_UNIT (LENGTH_MEASURE( 1.000000000000000082E-05 ), #227, 'distance_accuracy_value', 'NONE');
#216 = CARTESIAN_POINT ( 'NONE',  ( 16.25000000000000000, 7.600000000000000533, 0.000000000000000000 ) ) ;
#217 = AXIS2_PLACEMENT_3D ( 'NONE', #221, #287, #142 ) ;
#218 = DIRECTION ( 'NONE',  ( -1.000000000000000000, 0.000000000000000000, -0.000000000000000000 ) ) ;
#219 = CARTESIAN_POINT ( 'NONE',  ( -19.50000000000000000, 0.000000000000000000, 0.000000000000000000 ) ) ;
#220 = CYLINDRICAL_SURFACE ( 'NONE', #155, 7.599999999999999645 ) ;
#221 = CARTESIAN_POINT ( 'NONE',  ( -16.25000000000000000, 0.000000000000000000, 0.000000000000000000 ) ) ;
#222 = DIRECTION ( 'NONE',  ( -1.000000000000000000, -0.000000000000000000, -0.000000000000000000 ) ) ;
#223 = AXIS2_PLACEMENT_3D ( 'NONE', #216, #125, #78 ) ;
#224 = EDGE_LOOP ( 'NONE', ( #12 ) ) ;
#225 = FACE_BOUND ( 'NONE', #199, .T. ) ;
#226 = FACE_BOUND ( 'NONE', #129, .T. ) ;
#227 =( LENGTH_UNIT ( ) NAMED_UNIT ( * ) SI_UNIT ( .MILLI., .METRE. ) );
#228 = EDGE_CURVE ( 'NONE', #18, #18, #34, .T. ) ;
#229 = CONICAL_SURFACE ( 'NONE', #211, 7.999999999999994671, 0.5235987755983001479 ) ;
#230 = DIRECTION ( 'NONE',  ( -1.000000000000000000, -0.000000000000000000, -0.000000000000000000 ) ) ;
#231 = EDGE_LOOP ( 'NONE', ( #241 ) ) ;
#232 = VERTEX_POINT ( 'NONE', #26 ) ;
#233 = DIRECTION ( 'NONE',  ( -1.000000000000000000, -0.000000000000000000, -0.000000000000000000 ) ) ;
#234 = CARTESIAN_POINT ( 'NONE',  ( -17.34999999999999787, 7.599999999999995204, 0.000000000000000000 ) ) ;
#235 = PRODUCT_DEFINITION_FORMATION_WITH_SPECIFIED_SOURCE ( 'ANY', '', #270, .NOT_KNOWN. ) ;
#236 = DIRECTION ( 'NONE',  ( -1.000000000000000000, -0.000000000000000000, -0.000000000000000000 ) ) ;
#237 = EDGE_LOOP ( 'NONE', ( #156 ) ) ;
#238 = COLOUR_RGB ( '',0.7764705882352941346, 0.7568627450980391913, 0.7372549019607843590 ) ;
#239 = ORIENTED_EDGE ( 'NONE', *, *, #92, .F. ) ;
#240 = AXIS2_PLACEMENT_3D ( 'NONE', #47, #233, #119 ) ;
#241 = ORIENTED_EDGE ( 'NONE', *, *, #261, .T. ) ;
#242 = ADVANCED_FACE ( 'NONE', ( #285 ), #65, .F. ) ;
#243 = VERTEX_POINT ( 'NONE', #37 ) ;
#244 = ORIENTED_EDGE ( 'NONE', *, *, #207, .F. ) ;
#245 = CIRCLE ( 'NONE', #280, 7.999999999999996447 ) ;
#246 = STYLED_ITEM ( 'NONE', ( #113 ), #180 ) ;
#247 = ORIENTED_EDGE ( 'NONE', *, *, #42, .T. ) ;
#248 = CIRCLE ( 'NONE', #130, 7.599999999999995204 ) ;
#249 = VERTEX_POINT ( 'NONE', #183 ) ;
#250 = DIRECTION ( 'NONE',  ( 0.000000000000000000, 0.000000000000000000, 1.000000000000000000 ) ) ;
#251 = CARTESIAN_POINT ( 'NONE',  ( -16.25000000000000000, 0.000000000000000000, 0.000000000000000000 ) ) ;
#252 = SURFACE_SIDE_STYLE ('',( #276 ) ) ;
#253 = DIRECTION ( 'NONE',  ( 1.000000000000000000, 0.000000000000000000, 0.000000000000000000 ) ) ;
#254 = DIRECTION ( 'NONE',  ( 1.000000000000000000, 0.000000000000000000, 0.000000000000000000 ) ) ;
#255 = FACE_OUTER_BOUND ( 'NONE', #300, .T. ) ;
#256 = CYLINDRICAL_SURFACE ( 'NONE', #159, 8.000000000000000000 ) ;
#257 = CYLINDRICAL_SURFACE ( 'NONE', #2, 7.999999999999996447 ) ;
#258 = ORIENTED_EDGE ( 'NONE', *, *, #259, .T. ) ;
#259 = EDGE_CURVE ( 'NONE', #249, #249, #204, .T. ) ;
#260 = PLANE ( 'NONE',  #223 ) ;
#261 = EDGE_CURVE ( 'NONE', #278, #278, #248, .T. ) ;
#262 = ORIENTED_EDGE ( 'NONE', *, *, #206, .T. ) ;
#263 = PLANE ( 'NONE',  #269 ) ;
#264 = ORIENTED_EDGE ( 'NONE', *, *, #111, .F. ) ;
#265 = AXIS2_PLACEMENT_3D ( 'NONE', #49, #253, #158 ) ;
#266 = ADVANCED_FACE ( 'NONE', ( #188, #283 ), #257, .T. ) ;
#267 = EDGE_LOOP ( 'NONE', ( #7 ) ) ;
#268 = CIRCLE ( 'NONE', #70, 7.599999999999998757 ) ;
#269 = AXIS2_PLACEMENT_3D ( 'NONE', #32, #218, #4 ) ;
#270 = PRODUCT ( '76.04.07.0005', '76.04.07.0005', '', ( #137 ) ) ;
#271 = DIRECTION ( 'NONE',  ( 0.000000000000000000, 0.000000000000000000, 1.000000000000000000 ) ) ;
#272 = EDGE_LOOP ( 'NONE', ( #169 ) ) ;
#273 = APPLICATION_PROTOCOL_DEFINITION ( 'draft international standard', 'automotive_design', 1998, #164 ) ;
#274 = CARTESIAN_POINT ( 'NONE',  ( -16.25000000000000000, 0.000000000000000000, 7.599999999999996092 ) ) ;
#275 = CARTESIAN_POINT ( 'NONE',  ( 18.50000000000000000, 0.000000000000000000, 0.000000000000000000 ) ) ;
#276 = SURFACE_STYLE_FILL_AREA ( #132 ) ;
#277 = CARTESIAN_POINT ( 'NONE',  ( -19.50000000000000000, 0.000000000000000000, 0.000000000000000000 ) ) ;
#278 = VERTEX_POINT ( 'NONE', #160 ) ;
#279 = DIRECTION ( 'NONE',  ( -1.000000000000000000, -0.000000000000000000, -0.000000000000000000 ) ) ;
#280 = AXIS2_PLACEMENT_3D ( 'NONE', #140, #162, #250 ) ;
#281 =( LENGTH_UNIT ( ) NAMED_UNIT ( * ) SI_UNIT ( .MILLI., .METRE. ) );
#282 = FACE_OUTER_BOUND ( 'NONE', #272, .T. ) ;
#283 = FACE_OUTER_BOUND ( 'NONE', #178, .T. ) ;
#284 = APPLICATION_CONTEXT ( 'automotive_design' ) ;
#285 = FACE_OUTER_BOUND ( 'NONE', #31, .T. ) ;
#286 = AXIS2_PLACEMENT_3D ( 'NONE', #27, #75, #212 ) ;
#287 = DIRECTION ( 'NONE',  ( -1.000000000000000000, -0.000000000000000000, -0.000000000000000000 ) ) ;
#288 = ORIENTED_EDGE ( 'NONE', *, *, #173, .T. ) ;
#289 = FACE_BOUND ( 'NONE', #150, .T. ) ;
#290 = ORIENTED_EDGE ( 'NONE', *, *, #167, .T. ) ;
#291 = EDGE_LOOP ( 'NONE', ( #244 ) ) ;
#292 = ORIENTED_EDGE ( 'NONE', *, *, #92, .T. ) ;
#293 =( NAMED_UNIT ( * ) PLANE_ANGLE_UNIT ( ) SI_UNIT ( $, .RADIAN. ) );
#294 = DIRECTION ( 'NONE',  ( 0.000000000000000000, 0.000000000000000000, 1.000000000000000000 ) ) ;
#295 = DIRECTION ( 'NONE',  ( -1.000000000000000000, -0.000000000000000000, -0.000000000000000000 ) ) ;
#296 = UNCERTAINTY_MEASURE_WITH_UNIT (LENGTH_MEASURE( 1.000000000000000082E-05 ), #281, 'distance_accuracy_value', 'NONE');
#297 = SHAPE_DEFINITION_REPRESENTATION ( #174, #180 ) ;
#298 = DIRECTION ( 'NONE',  ( 0.000000000000000000, 0.000000000000000000, 1.000000000000000000 ) ) ;
#299 = CARTESIAN_POINT ( 'NONE',  ( -18.50000000000000000, 0.000000000000000000, 0.000000000000000000 ) ) ;
#300 = EDGE_LOOP ( 'NONE', ( #262 ) ) ;
ENDSEC;
END-ISO-10303-21;
