ISO-10303-21;
HEADER;
FILE_DESCRIPTION (( 'STEP AP214' ),
    '1' );
FILE_NAME ('76.04.06.0008.step',
    '2021-04-02T18:04:35',
    ( '' ),
    ( '' ),
    'SwSTEP 2.0',
    'SolidWorks 2021',
    '' );
FILE_SCHEMA (( 'AUTOMOTIVE_DESIGN' ));
ENDSEC;

DATA;
#1 = DIRECTION ( 'NONE',  ( 0.000000000000000000, 0.000000000000000000, 1.000000000000000000 ) ) ;
#2 = FACE_OUTER_BOUND ( 'NONE', #272, .T. ) ;
#3 = ADVANCED_FACE ( 'NONE', ( #182, #202 ), #187, .F. ) ;
#4 = ORIENTED_EDGE ( 'NONE', *, *, #262, .T. ) ;
#5 = CLOSED_SHELL ( 'NONE', ( #232, #101, #18, #122, #65, #106, #60, #186, #48, #3, #91, #204, #33 ) ) ;
#6 = DIRECTION ( 'NONE',  ( -1.000000000000000000, -0.000000000000000000, -0.000000000000000000 ) ) ;
#7 = DIRECTION ( 'NONE',  ( 0.000000000000000000, 0.000000000000000000, 1.000000000000000000 ) ) ;
#8 = EDGE_LOOP ( 'NONE', ( #116 ) ) ;
#9 = CARTESIAN_POINT ( 'NONE',  ( 30.00000000000000000, 0.000000000000000000, 0.000000000000000000 ) ) ;
#10 = ORIENTED_EDGE ( 'NONE', *, *, #213, .T. ) ;
#11 = CARTESIAN_POINT ( 'NONE',  ( -25.25000000000000355, 0.000000000000000000, 11.94999999999999574 ) ) ;
#12 = DIRECTION ( 'NONE',  ( 0.000000000000000000, 0.000000000000000000, 1.000000000000000000 ) ) ;
#13 = FACE_OUTER_BOUND ( 'NONE', #288, .T. ) ;
#14 = ORIENTED_EDGE ( 'NONE', *, *, #17, .F. ) ;
#15 = PRODUCT_CONTEXT ( 'NONE', #265, 'mechanical' ) ;
#16 = CIRCLE ( 'NONE', #185, 12.50000000000000178 ) ;
#17 = EDGE_CURVE ( 'NONE', #86, #86, #36, .T. ) ;
#18 = ADVANCED_FACE ( 'NONE', ( #52, #141 ), #19, .T. ) ;
#19 = CYLINDRICAL_SURFACE ( 'NONE', #164, 12.50000000000000000 ) ;
#20 =( NAMED_UNIT ( * ) PLANE_ANGLE_UNIT ( ) SI_UNIT ( $, .RADIAN. ) );
#21 = CARTESIAN_POINT ( 'NONE',  ( 28.99999999999999645, 0.000000000000000000, 0.000000000000000000 ) ) ;
#22 = CIRCLE ( 'NONE', #45, 12.49999999999999822 ) ;
#23 = FILL_AREA_STYLE_COLOUR ( '', #170 ) ;
#24 = CARTESIAN_POINT ( 'NONE',  ( -26.55000000000000426, 0.000000000000000000, 12.49999999999999467 ) ) ;
#25 = DIRECTION ( 'NONE',  ( 0.000000000000000000, 0.000000000000000000, 1.000000000000000000 ) ) ;
#26 = CARTESIAN_POINT ( 'NONE',  ( 25.25000000000000711, 0.000000000000000000, 11.95000000000000284 ) ) ;
#27 = DIRECTION ( 'NONE',  ( -1.000000000000000000, -0.000000000000000000, -0.000000000000000000 ) ) ;
#28 = VERTEX_POINT ( 'NONE', #276 ) ;
#29 = AXIS2_PLACEMENT_3D ( 'NONE', #53, #254, #105 ) ;
#30 = DIRECTION ( 'NONE',  ( 1.000000000000000000, 0.000000000000000000, 0.000000000000000000 ) ) ;
#31 = AXIS2_PLACEMENT_3D ( 'NONE', #156, #297, #25 ) ;
#32 = FACE_OUTER_BOUND ( 'NONE', #293, .T. ) ;
#33 = ADVANCED_FACE ( 'NONE', ( #13 ), #92, .F. ) ;
#34 = SURFACE_STYLE_USAGE ( .BOTH. , #136 ) ;
#35 = PRODUCT_DEFINITION_FORMATION_WITH_SPECIFIED_SOURCE ( 'ANY', '', #181, .NOT_KNOWN. ) ;
#36 = CIRCLE ( 'NONE', #88, 12.50000000000000000 ) ;
#37 = DIRECTION ( 'NONE',  ( 0.000000000000000000, 0.000000000000000000, 1.000000000000000000 ) ) ;
#38 = EDGE_LOOP ( 'NONE', ( #244 ) ) ;
#39 = DIRECTION ( 'NONE',  ( -0.000000000000000000, 0.000000000000000000, 1.000000000000000000 ) ) ;
#40 = ORIENTED_EDGE ( 'NONE', *, *, #213, .F. ) ;
#41 = CARTESIAN_POINT ( 'NONE',  ( 25.25000000000000711, 0.000000000000000000, 12.50000000000000533 ) ) ;
#42 = DIRECTION ( 'NONE',  ( -1.000000000000000000, -0.000000000000000000, -0.000000000000000000 ) ) ;
#43 = AXIS2_PLACEMENT_3D ( 'NONE', #284, #6, #7 ) ;
#44 = DIRECTION ( 'NONE',  ( 0.000000000000000000, 0.000000000000000000, 1.000000000000000000 ) ) ;
#45 = AXIS2_PLACEMENT_3D ( 'NONE', #130, #42, #37 ) ;
#46 = EDGE_LOOP ( 'NONE', ( #237 ) ) ;
#47 = EDGE_CURVE ( 'NONE', #286, #286, #224, .T. ) ;
#48 = ADVANCED_FACE ( 'NONE', ( #266, #72 ), #188, .T. ) ;
#49 = AXIS2_PLACEMENT_3D ( 'NONE', #278, #27, #126 ) ;
#50 =( LENGTH_UNIT ( ) NAMED_UNIT ( * ) SI_UNIT ( .MILLI., .METRE. ) );
#51 = CARTESIAN_POINT ( 'NONE',  ( -26.55000000000000426, 0.000000000000000000, 11.94999999999999218 ) ) ;
#52 = FACE_OUTER_BOUND ( 'NONE', #96, .T. ) ;
#53 = CARTESIAN_POINT ( 'NONE',  ( 0.000000000000000000, 0.000000000000000000, 0.000000000000000000 ) ) ;
#54 = FACE_OUTER_BOUND ( 'NONE', #8, .T. ) ;
#55 = FACE_OUTER_BOUND ( 'NONE', #240, .T. ) ;
#56 = AXIS2_PLACEMENT_3D ( 'NONE', #281, #134, #63 ) ;
#57 = VERTEX_POINT ( 'NONE', #167 ) ;
#58 = CARTESIAN_POINT ( 'NONE',  ( 30.00000000000000000, 0.000000000000000000, 0.000000000000000000 ) ) ;
#59 = PLANE ( 'NONE',  #246 ) ;
#60 = ADVANCED_FACE ( 'NONE', ( #169, #150 ), #110, .T. ) ;
#61 = CARTESIAN_POINT ( 'NONE',  ( -30.00000000000000000, 0.000000000000000000, 0.000000000000000000 ) ) ;
#62 =( LENGTH_UNIT ( ) NAMED_UNIT ( * ) SI_UNIT ( .MILLI., .METRE. ) );
#63 = DIRECTION ( 'NONE',  ( 0.000000000000000000, 0.000000000000000000, 1.000000000000000000 ) ) ;
#64 =( GEOMETRIC_REPRESENTATION_CONTEXT ( 3 ) GLOBAL_UNCERTAINTY_ASSIGNED_CONTEXT ( ( #147 ) ) GLOBAL_UNIT_ASSIGNED_CONTEXT ( ( #273, #20, #119 ) ) REPRESENTATION_CONTEXT ( 'NONE', 'WORKASPACE' ) );
#65 = ADVANCED_FACE ( 'NONE', ( #104, #32 ), #149, .T. ) ;
#66 = AXIS2_PLACEMENT_3D ( 'NONE', #174, #256, #195 ) ;
#67 = DIRECTION ( 'NONE',  ( -1.000000000000000000, 0.000000000000000000, -0.000000000000000000 ) ) ;
#68 = ORIENTED_EDGE ( 'NONE', *, *, #142, .F. ) ;
#69 = PLANE ( 'NONE',  #140 ) ;
#70 = DIRECTION ( 'NONE',  ( 0.000000000000000000, 0.000000000000000000, -1.000000000000000000 ) ) ;
#71 = EDGE_CURVE ( 'NONE', #206, #206, #16, .T. ) ;
#72 = FACE_OUTER_BOUND ( 'NONE', #220, .T. ) ;
#73 = AXIS2_PLACEMENT_3D ( 'NONE', #270, #158, #166 ) ;
#74 = ORIENTED_EDGE ( 'NONE', *, *, #47, .F. ) ;
#75 =( NAMED_UNIT ( * ) SI_UNIT ( $, .STERADIAN. ) SOLID_ANGLE_UNIT ( ) );
#76 = PLANE ( 'NONE',  #120 ) ;
#77 = DIRECTION ( 'NONE',  ( -1.000000000000000000, -0.000000000000000000, -0.000000000000000000 ) ) ;
#78 = VERTEX_POINT ( 'NONE', #51 ) ;
#79 = CARTESIAN_POINT ( 'NONE',  ( 25.25000000000000711, 0.000000000000000000, 0.000000000000000000 ) ) ;
#80 = AXIS2_PLACEMENT_3D ( 'NONE', #253, #124, #230 ) ;
#81 = PRESENTATION_STYLE_ASSIGNMENT (( #252 ) ) ;
#82 = DIRECTION ( 'NONE',  ( 0.000000000000000000, 0.000000000000000000, 1.000000000000000000 ) ) ;
#83 = DIRECTION ( 'NONE',  ( -1.000000000000000000, -0.000000000000000000, -0.000000000000000000 ) ) ;
#84 = EDGE_LOOP ( 'NONE', ( #87 ) ) ;
#85 = EDGE_LOOP ( 'NONE', ( #285 ) ) ;
#86 = VERTEX_POINT ( 'NONE', #199 ) ;
#87 = ORIENTED_EDGE ( 'NONE', *, *, #250, .T. ) ;
#88 = AXIS2_PLACEMENT_3D ( 'NONE', #222, #247, #200 ) ;
#89 = CARTESIAN_POINT ( 'NONE',  ( -26.55000000000000426, 0.000000000000000000, 0.000000000000000000 ) ) ;
#90 = ORIENTED_EDGE ( 'NONE', *, *, #271, .F. ) ;
#91 = ADVANCED_FACE ( 'NONE', ( #54, #151 ), #212, .T. ) ;
#92 = PLANE ( 'NONE',  #172 ) ;
#93 = CARTESIAN_POINT ( 'NONE',  ( -30.00000000000000000, 0.000000000000000000, 11.92264973081036139 ) ) ;
#94 = CARTESIAN_POINT ( 'NONE',  ( 28.99999999999999645, 0.000000000000000000, 12.50000000000000178 ) ) ;
#95 = VERTEX_POINT ( 'NONE', #93 ) ;
#96 = EDGE_LOOP ( 'NONE', ( #14 ) ) ;
#97 = CIRCLE ( 'NONE', #43, 12.49999999999999289 ) ;
#98 = DIRECTION ( 'NONE',  ( -1.000000000000000000, -0.000000000000000000, -0.000000000000000000 ) ) ;
#99 = EDGE_CURVE ( 'NONE', #95, #95, #197, .T. ) ;
#100 = VERTEX_POINT ( 'NONE', #231 ) ;
#101 = ADVANCED_FACE ( 'NONE', ( #175, #190 ), #201, .T. ) ;
#102 = FACE_OUTER_BOUND ( 'NONE', #203, .T. ) ;
#103 =( NAMED_UNIT ( * ) PLANE_ANGLE_UNIT ( ) SI_UNIT ( $, .RADIAN. ) );
#104 = FACE_OUTER_BOUND ( 'NONE', #131, .T. ) ;
#105 = DIRECTION ( 'NONE',  ( 1.000000000000000000, 0.000000000000000000, 0.000000000000000000 ) ) ;
#106 = ADVANCED_FACE ( 'NONE', ( #55, #251 ), #298, .F. ) ;
#107 = DIRECTION ( 'NONE',  ( 1.000000000000000000, 0.000000000000000000, 0.000000000000000000 ) ) ;
#108 = AXIS2_PLACEMENT_3D ( 'NONE', #58, #216, #125 ) ;
#109 = DIRECTION ( 'NONE',  ( 0.000000000000000000, 0.000000000000000000, 1.000000000000000000 ) ) ;
#110 = CYLINDRICAL_SURFACE ( 'NONE', #49, 12.50000000000000178 ) ;
#111 = ORIENTED_EDGE ( 'NONE', *, *, #259, .F. ) ;
#112 = CONICAL_SURFACE ( 'NONE', #155, 12.49999999999999289, 0.5235987755983055880 ) ;
#113 = ORIENTED_EDGE ( 'NONE', *, *, #165, .T. ) ;
#114 = APPLICATION_CONTEXT ( 'automotive_design' ) ;
#115 = EDGE_LOOP ( 'NONE', ( #90 ) ) ;
#116 = ORIENTED_EDGE ( 'NONE', *, *, #289, .F. ) ;
#117 = ORIENTED_EDGE ( 'NONE', *, *, #262, .F. ) ;
#118 = MECHANICAL_DESIGN_GEOMETRIC_PRESENTATION_REPRESENTATION (  '', ( #238 ), #257 ) ;
#119 =( NAMED_UNIT ( * ) SI_UNIT ( $, .STERADIAN. ) SOLID_ANGLE_UNIT ( ) );
#120 = AXIS2_PLACEMENT_3D ( 'NONE', #275, #107, #296 ) ;
#121 = CARTESIAN_POINT ( 'NONE',  ( -30.00000000000000000, 0.000000000000000000, 0.000000000000000000 ) ) ;
#122 = ADVANCED_FACE ( 'NONE', ( #235, #2 ), #76, .F. ) ;
#123 = AXIS2_PLACEMENT_3D ( 'NONE', #9, #180, #12 ) ;
#124 = DIRECTION ( 'NONE',  ( -1.000000000000000000, -0.000000000000000000, -0.000000000000000000 ) ) ;
#125 = DIRECTION ( 'NONE',  ( 0.000000000000000000, 0.000000000000000000, 1.000000000000000000 ) ) ;
#126 = DIRECTION ( 'NONE',  ( 0.000000000000000000, 0.000000000000000000, 1.000000000000000000 ) ) ;
#127 = CARTESIAN_POINT ( 'NONE',  ( -29.00000000000000000, 0.000000000000000000, 0.000000000000000000 ) ) ;
#128 = CIRCLE ( 'NONE', #234, 11.94999999999999929 ) ;
#129 = CARTESIAN_POINT ( 'NONE',  ( -30.00000000000000000, 0.000000000000000000, 0.000000000000000000 ) ) ;
#130 = CARTESIAN_POINT ( 'NONE',  ( -25.25000000000000711, 0.000000000000000000, 0.000000000000000000 ) ) ;
#131 = EDGE_LOOP ( 'NONE', ( #117 ) ) ;
#132 = MECHANICAL_DESIGN_GEOMETRIC_PRESENTATION_REPRESENTATION (  '', ( #160 ), #171 ) ;
#133 = ORIENTED_EDGE ( 'NONE', *, *, #271, .T. ) ;
#134 = DIRECTION ( 'NONE',  ( -1.000000000000000000, -0.000000000000000000, -0.000000000000000000 ) ) ;
#135 = CARTESIAN_POINT ( 'NONE',  ( -30.00000000000000000, 11.92264973081036139, 0.000000000000000000 ) ) ;
#136 = SURFACE_SIDE_STYLE ('',( #152 ) ) ;
#137 = EDGE_LOOP ( 'NONE', ( #133 ) ) ;
#138 = EDGE_LOOP ( 'NONE', ( #74 ) ) ;
#139 = PRODUCT_DEFINITION_CONTEXT ( 'detailed design', #114, 'design' ) ;
#140 = AXIS2_PLACEMENT_3D ( 'NONE', #154, #67, #39 ) ;
#141 = FACE_OUTER_BOUND ( 'NONE', #46, .T. ) ;
#142 = EDGE_CURVE ( 'NONE', #241, #241, #145, .T. ) ;
#143 = CARTESIAN_POINT ( 'NONE',  ( -25.25000000000000711, 0.000000000000000000, 12.49999999999999822 ) ) ;
#144 = DIRECTION ( 'NONE',  ( -1.000000000000000000, -0.000000000000000000, -0.000000000000000000 ) ) ;
#145 = CIRCLE ( 'NONE', #261, 12.50000000000000533 ) ;
#146 = DIRECTION ( 'NONE',  ( 0.000000000000000000, 0.000000000000000000, 1.000000000000000000 ) ) ;
#147 = UNCERTAINTY_MEASURE_WITH_UNIT (LENGTH_MEASURE( 1.000000000000000082E-05 ), #273, 'distance_accuracy_value', 'NONE');
#148 = SURFACE_SIDE_STYLE ('',( #162 ) ) ;
#149 = CYLINDRICAL_SURFACE ( 'NONE', #219, 11.95000000000000107 ) ;
#150 = FACE_OUTER_BOUND ( 'NONE', #239, .T. ) ;
#151 = FACE_OUTER_BOUND ( 'NONE', #84, .T. ) ;
#152 = SURFACE_STYLE_FILL_AREA ( #290 ) ;
#153 = FILL_AREA_STYLE_COLOUR ( '', #283 ) ;
#154 = CARTESIAN_POINT ( 'NONE',  ( 30.00000000000000000, 0.000000000000000000, 0.000000000000000000 ) ) ;
#155 = AXIS2_PLACEMENT_3D ( 'NONE', #127, #274, #189 ) ;
#156 = CARTESIAN_POINT ( 'NONE',  ( -30.00000000000000000, 0.000000000000000000, 0.000000000000000000 ) ) ;
#157 = ORIENTED_EDGE ( 'NONE', *, *, #142, .T. ) ;
#158 = DIRECTION ( 'NONE',  ( -1.000000000000000000, 0.000000000000000000, -0.000000000000000000 ) ) ;
#159 = ORIENTED_EDGE ( 'NONE', *, *, #99, .F. ) ;
#160 = STYLED_ITEM ( 'NONE', ( #218 ), #279 ) ;
#161 = ADVANCED_BREP_SHAPE_REPRESENTATION ( '76.04.06.0008', ( #279, #29 ), #64 ) ;
#162 = SURFACE_STYLE_FILL_AREA ( #207 ) ;
#163 = PRODUCT_RELATED_PRODUCT_CATEGORY ( 'part', '', ( #181 ) ) ;
#164 = AXIS2_PLACEMENT_3D ( 'NONE', #121, #295, #264 ) ;
#165 = EDGE_CURVE ( 'NONE', #78, #78, #277, .T. ) ;
#166 = DIRECTION ( 'NONE',  ( -0.000000000000000000, 0.000000000000000000, 1.000000000000000000 ) ) ;
#167 = CARTESIAN_POINT ( 'NONE',  ( 26.55000000000000426, 0.000000000000000000, 11.94999999999999929 ) ) ;
#168 = DIRECTION ( 'NONE',  ( 0.000000000000000000, 0.000000000000000000, 1.000000000000000000 ) ) ;
#169 = FACE_OUTER_BOUND ( 'NONE', #205, .T. ) ;
#170 = COLOUR_RGB ( '',0.8274509803921568096, 0.8392156862745098200, 0.8274509803921568096 ) ;
#171 =( GEOMETRIC_REPRESENTATION_CONTEXT ( 3 ) GLOBAL_UNCERTAINTY_ASSIGNED_CONTEXT ( ( #217 ) ) GLOBAL_UNIT_ASSIGNED_CONTEXT ( ( #62, #176, #236 ) ) REPRESENTATION_CONTEXT ( 'NONE', 'WORKASPACE' ) );
#172 = AXIS2_PLACEMENT_3D ( 'NONE', #135, #221, #70 ) ;
#173 = DIRECTION ( 'NONE',  ( 0.000000000000000000, 0.000000000000000000, -1.000000000000000000 ) ) ;
#174 = CARTESIAN_POINT ( 'NONE',  ( 25.25000000000000711, 11.95000000000000284, 0.000000000000000000 ) ) ;
#175 = FACE_OUTER_BOUND ( 'NONE', #183, .T. ) ;
#176 =( NAMED_UNIT ( * ) PLANE_ANGLE_UNIT ( ) SI_UNIT ( $, .RADIAN. ) );
#177 = ORIENTED_EDGE ( 'NONE', *, *, #17, .T. ) ;
#178 = AXIS2_PLACEMENT_3D ( 'NONE', #255, #144, #82 ) ;
#179 = ORIENTED_EDGE ( 'NONE', *, *, #47, .T. ) ;
#180 = DIRECTION ( 'NONE',  ( -1.000000000000000000, -0.000000000000000000, -0.000000000000000000 ) ) ;
#181 = PRODUCT ( '76.04.06.0008', '76.04.06.0008', '', ( #15 ) ) ;
#182 = FACE_OUTER_BOUND ( 'NONE', #85, .T. ) ;
#183 = EDGE_LOOP ( 'NONE', ( #226 ) ) ;
#184 = PRODUCT_DEFINITION ( 'UNKNOWN', '', #35, #139 ) ;
#185 = AXIS2_PLACEMENT_3D ( 'NONE', #21, #280, #146 ) ;
#186 = ADVANCED_FACE ( 'NONE', ( #249, #210 ), #59, .F. ) ;
#187 = PLANE ( 'NONE',  #73 ) ;
#188 = CYLINDRICAL_SURFACE ( 'NONE', #31, 11.94999999999999396 ) ;
#189 = DIRECTION ( 'NONE',  ( 0.000000000000000000, 0.000000000000000000, -1.000000000000000000 ) ) ;
#190 = FACE_BOUND ( 'NONE', #137, .T. ) ;
#191 = VERTEX_POINT ( 'NONE', #24 ) ;
#192 = DIRECTION ( 'NONE',  ( -1.000000000000000000, -0.000000000000000000, -0.000000000000000000 ) ) ;
#193 = UNCERTAINTY_MEASURE_WITH_UNIT (LENGTH_MEASURE( 1.000000000000000082E-05 ), #50, 'distance_accuracy_value', 'NONE');
#194 = FACE_OUTER_BOUND ( 'NONE', #115, .T. ) ;
#195 = DIRECTION ( 'NONE',  ( -0.000000000000000000, 0.000000000000000000, 1.000000000000000000 ) ) ;
#196 = DIRECTION ( 'NONE',  ( 0.000000000000000000, 0.000000000000000000, 1.000000000000000000 ) ) ;
#197 = CIRCLE ( 'NONE', #300, 11.92264973081036139 ) ;
#198 = EDGE_LOOP ( 'NONE', ( #40 ) ) ;
#199 = CARTESIAN_POINT ( 'NONE',  ( 26.55000000000000426, 0.000000000000000000, 12.50000000000000000 ) ) ;
#200 = DIRECTION ( 'NONE',  ( 0.000000000000000000, 0.000000000000000000, 1.000000000000000000 ) ) ;
#201 = CONICAL_SURFACE ( 'NONE', #108, 11.92264973081036139, 0.5235987755983105840 ) ;
#202 = FACE_BOUND ( 'NONE', #223, .T. ) ;
#203 = EDGE_LOOP ( 'NONE', ( #294 ) ) ;
#204 = ADVANCED_FACE ( 'NONE', ( #229, #102 ), #112, .T. ) ;
#205 = EDGE_LOOP ( 'NONE', ( #111 ) ) ;
#206 = VERTEX_POINT ( 'NONE', #94 ) ;
#207 = FILL_AREA_STYLE ('',( #23 ) ) ;
#208 = ORIENTED_EDGE ( 'NONE', *, *, #165, .F. ) ;
#209 = CIRCLE ( 'NONE', #56, 11.95000000000000284 ) ;
#210 = FACE_OUTER_BOUND ( 'NONE', #38, .T. ) ;
#211 = DIRECTION ( 'NONE',  ( 0.000000000000000000, 0.000000000000000000, 1.000000000000000000 ) ) ;
#212 = CYLINDRICAL_SURFACE ( 'NONE', #80, 12.49999999999999289 ) ;
#213 = EDGE_CURVE ( 'NONE', #57, #57, #128, .T. ) ;
#214 = AXIS2_PLACEMENT_3D ( 'NONE', #242, #98, #44 ) ;
#215 = CARTESIAN_POINT ( 'NONE',  ( 26.55000000000000426, 0.000000000000000000, 0.000000000000000000 ) ) ;
#216 = DIRECTION ( 'NONE',  ( -1.000000000000000000, -0.000000000000000000, -0.000000000000000000 ) ) ;
#217 = UNCERTAINTY_MEASURE_WITH_UNIT (LENGTH_MEASURE( 1.000000000000000082E-05 ), #62, 'distance_accuracy_value', 'NONE');
#218 = PRESENTATION_STYLE_ASSIGNMENT (( #34 ) ) ;
#219 = AXIS2_PLACEMENT_3D ( 'NONE', #61, #227, #168 ) ;
#220 = EDGE_LOOP ( 'NONE', ( #179 ) ) ;
#221 = DIRECTION ( 'NONE',  ( 1.000000000000000000, 0.000000000000000000, 0.000000000000000000 ) ) ;
#222 = CARTESIAN_POINT ( 'NONE',  ( 26.55000000000000426, 0.000000000000000000, 0.000000000000000000 ) ) ;
#223 = EDGE_LOOP ( 'NONE', ( #113 ) ) ;
#224 = CIRCLE ( 'NONE', #214, 11.94999999999999574 ) ;
#225 = SHAPE_DEFINITION_REPRESENTATION ( #287, #161 ) ;
#226 = ORIENTED_EDGE ( 'NONE', *, *, #71, .F. ) ;
#227 = DIRECTION ( 'NONE',  ( -1.000000000000000000, -0.000000000000000000, -0.000000000000000000 ) ) ;
#228 = AXIS2_PLACEMENT_3D ( 'NONE', #89, #260, #196 ) ;
#229 = FACE_BOUND ( 'NONE', #258, .T. ) ;
#230 = DIRECTION ( 'NONE',  ( 0.000000000000000000, 0.000000000000000000, 1.000000000000000000 ) ) ;
#231 = CARTESIAN_POINT ( 'NONE',  ( 30.00000000000000000, 0.000000000000000000, 11.92264973081036139 ) ) ;
#232 = ADVANCED_FACE ( 'NONE', ( #194 ), #69, .F. ) ;
#233 = CARTESIAN_POINT ( 'NONE',  ( -25.25000000000000711, 12.49999999999999822, 0.000000000000000000 ) ) ;
#234 = AXIS2_PLACEMENT_3D ( 'NONE', #215, #77, #1 ) ;
#235 = FACE_BOUND ( 'NONE', #198, .T. ) ;
#236 =( NAMED_UNIT ( * ) SI_UNIT ( $, .STERADIAN. ) SOLID_ANGLE_UNIT ( ) );
#237 = ORIENTED_EDGE ( 'NONE', *, *, #71, .T. ) ;
#238 = STYLED_ITEM ( 'NONE', ( #81 ), #161 ) ;
#239 = EDGE_LOOP ( 'NONE', ( #157 ) ) ;
#240 = EDGE_LOOP ( 'NONE', ( #68 ) ) ;
#241 = VERTEX_POINT ( 'NONE', #41 ) ;
#242 = CARTESIAN_POINT ( 'NONE',  ( -25.25000000000000355, 0.000000000000000000, 0.000000000000000000 ) ) ;
#243 = CIRCLE ( 'NONE', #123, 11.92264973081036139 ) ;
#244 = ORIENTED_EDGE ( 'NONE', *, *, #259, .T. ) ;
#245 = APPLICATION_PROTOCOL_DEFINITION ( 'draft international standard', 'automotive_design', 1998, #265 ) ;
#246 = AXIS2_PLACEMENT_3D ( 'NONE', #233, #30, #173 ) ;
#247 = DIRECTION ( 'NONE',  ( -1.000000000000000000, -0.000000000000000000, -0.000000000000000000 ) ) ;
#248 = VERTEX_POINT ( 'NONE', #143 ) ;
#249 = FACE_BOUND ( 'NONE', #138, .T. ) ;
#250 = EDGE_CURVE ( 'NONE', #191, #191, #291, .T. ) ;
#251 = FACE_BOUND ( 'NONE', #263, .T. ) ;
#252 = SURFACE_STYLE_USAGE ( .BOTH. , #148 ) ;
#253 = CARTESIAN_POINT ( 'NONE',  ( -30.00000000000000000, 0.000000000000000000, 0.000000000000000000 ) ) ;
#254 = DIRECTION ( 'NONE',  ( 0.000000000000000000, 0.000000000000000000, 1.000000000000000000 ) ) ;
#255 = CARTESIAN_POINT ( 'NONE',  ( -26.55000000000000426, 0.000000000000000000, 0.000000000000000000 ) ) ;
#256 = DIRECTION ( 'NONE',  ( -1.000000000000000000, 0.000000000000000000, -0.000000000000000000 ) ) ;
#257 =( GEOMETRIC_REPRESENTATION_CONTEXT ( 3 ) GLOBAL_UNCERTAINTY_ASSIGNED_CONTEXT ( ( #193 ) ) GLOBAL_UNIT_ASSIGNED_CONTEXT ( ( #50, #103, #75 ) ) REPRESENTATION_CONTEXT ( 'NONE', 'WORKASPACE' ) );
#258 = EDGE_LOOP ( 'NONE', ( #159 ) ) ;
#259 = EDGE_CURVE ( 'NONE', #248, #248, #22, .T. ) ;
#260 = DIRECTION ( 'NONE',  ( -1.000000000000000000, -0.000000000000000000, -0.000000000000000000 ) ) ;
#261 = AXIS2_PLACEMENT_3D ( 'NONE', #79, #192, #109 ) ;
#262 = EDGE_CURVE ( 'NONE', #299, #299, #209, .T. ) ;
#263 = EDGE_LOOP ( 'NONE', ( #4 ) ) ;
#264 = DIRECTION ( 'NONE',  ( 0.000000000000000000, 0.000000000000000000, 1.000000000000000000 ) ) ;
#265 = APPLICATION_CONTEXT ( 'automotive_design' ) ;
#266 = FACE_OUTER_BOUND ( 'NONE', #292, .T. ) ;
#267 = PRESENTATION_LAYER_ASSIGNMENT (  '', '', ( #160 ) ) ;
#268 = APPLICATION_PROTOCOL_DEFINITION ( 'draft international standard', 'automotive_design', 1998, #114 ) ;
#269 = PRESENTATION_LAYER_ASSIGNMENT (  '', '', ( #238 ) ) ;
#270 = CARTESIAN_POINT ( 'NONE',  ( -26.55000000000000426, 11.94999999999999218, 0.000000000000000000 ) ) ;
#271 = EDGE_CURVE ( 'NONE', #100, #100, #243, .T. ) ;
#272 = EDGE_LOOP ( 'NONE', ( #177 ) ) ;
#273 =( LENGTH_UNIT ( ) NAMED_UNIT ( * ) SI_UNIT ( .MILLI., .METRE. ) );
#274 = DIRECTION ( 'NONE',  ( 1.000000000000000000, 0.000000000000000000, 0.000000000000000000 ) ) ;
#275 = CARTESIAN_POINT ( 'NONE',  ( 26.55000000000000426, 12.50000000000000000, 0.000000000000000000 ) ) ;
#276 = CARTESIAN_POINT ( 'NONE',  ( -29.00000000000000000, 0.000000000000000000, 12.49999999999999289 ) ) ;
#277 = CIRCLE ( 'NONE', #178, 11.94999999999999218 ) ;
#278 = CARTESIAN_POINT ( 'NONE',  ( -30.00000000000000000, 0.000000000000000000, 0.000000000000000000 ) ) ;
#279 = MANIFOLD_SOLID_BREP ( 'Revolve1', #5 ) ;
#280 = DIRECTION ( 'NONE',  ( -1.000000000000000000, -0.000000000000000000, -0.000000000000000000 ) ) ;
#281 = CARTESIAN_POINT ( 'NONE',  ( 25.25000000000000711, 0.000000000000000000, 0.000000000000000000 ) ) ;
#282 = ORIENTED_EDGE ( 'NONE', *, *, #99, .T. ) ;
#283 = COLOUR_RGB ( '',0.8274509803921568096, 0.8392156862745098200, 0.8274509803921568096 ) ;
#284 = CARTESIAN_POINT ( 'NONE',  ( -29.00000000000000000, 0.000000000000000000, 0.000000000000000000 ) ) ;
#285 = ORIENTED_EDGE ( 'NONE', *, *, #250, .F. ) ;
#286 = VERTEX_POINT ( 'NONE', #11 ) ;
#287 = PRODUCT_DEFINITION_SHAPE ( 'NONE', 'NONE',  #184 ) ;
#288 = EDGE_LOOP ( 'NONE', ( #282 ) ) ;
#289 = EDGE_CURVE ( 'NONE', #28, #28, #97, .T. ) ;
#290 = FILL_AREA_STYLE ('',( #153 ) ) ;
#291 = CIRCLE ( 'NONE', #228, 12.49999999999999467 ) ;
#292 = EDGE_LOOP ( 'NONE', ( #208 ) ) ;
#293 = EDGE_LOOP ( 'NONE', ( #10 ) ) ;
#294 = ORIENTED_EDGE ( 'NONE', *, *, #289, .T. ) ;
#295 = DIRECTION ( 'NONE',  ( -1.000000000000000000, -0.000000000000000000, -0.000000000000000000 ) ) ;
#296 = DIRECTION ( 'NONE',  ( 0.000000000000000000, 0.000000000000000000, -1.000000000000000000 ) ) ;
#297 = DIRECTION ( 'NONE',  ( -1.000000000000000000, -0.000000000000000000, -0.000000000000000000 ) ) ;
#298 = PLANE ( 'NONE',  #66 ) ;
#299 = VERTEX_POINT ( 'NONE', #26 ) ;
#300 = AXIS2_PLACEMENT_3D ( 'NONE', #129, #83, #211 ) ;
ENDSEC;
END-ISO-10303-21;
