ISO-10303-21;
HEADER;
FILE_DESCRIPTION (( 'STEP AP214' ),
    '1' );
FILE_NAME ('76.04.06.0006.step',
    '2021-04-02T18:04:30',
    ( '' ),
    ( '' ),
    'SwSTEP 2.0',
    'SolidWorks 2021',
    '' );
FILE_SCHEMA (( 'AUTOMOTIVE_DESIGN' ));
ENDSEC;

DATA;
#1 = CARTESIAN_POINT ( 'NONE',  ( 16.25000000000000355, 0.000000000000000000, 7.600000000000000533 ) ) ;
#2 = FACE_OUTER_BOUND ( 'NONE', #104, .T. ) ;
#3 = AXIS2_PLACEMENT_3D ( 'NONE', #115, #297, #252 ) ;
#4 = CARTESIAN_POINT ( 'NONE',  ( 16.25000000000000000, 7.600000000000000533, 0.000000000000000000 ) ) ;
#5 = EDGE_LOOP ( 'NONE', ( #285 ) ) ;
#6 = ADVANCED_FACE ( 'NONE', ( #78, #281 ), #262, .T. ) ;
#7 = EDGE_LOOP ( 'NONE', ( #131 ) ) ;
#8 =( NAMED_UNIT ( * ) PLANE_ANGLE_UNIT ( ) SI_UNIT ( $, .RADIAN. ) );
#9 = CARTESIAN_POINT ( 'NONE',  ( 16.25000000000000355, 0.000000000000000000, 0.000000000000000000 ) ) ;
#10 = AXIS2_PLACEMENT_3D ( 'NONE', #225, #160, #282 ) ;
#11 = CARTESIAN_POINT ( 'NONE',  ( 0.000000000000000000, 0.000000000000000000, 0.000000000000000000 ) ) ;
#12 = DIRECTION ( 'NONE',  ( 0.000000000000000000, 0.000000000000000000, 1.000000000000000000 ) ) ;
#13 = DIRECTION ( 'NONE',  ( 0.000000000000000000, 0.000000000000000000, 1.000000000000000000 ) ) ;
#14 = CIRCLE ( 'NONE', #138, 8.000000000000000000 ) ;
#15 = EDGE_CURVE ( 'NONE', #139, #139, #86, .T. ) ;
#16 = EDGE_CURVE ( 'NONE', #116, #116, #239, .T. ) ;
#17 = ORIENTED_EDGE ( 'NONE', *, *, #16, .T. ) ;
#18 = DIRECTION ( 'NONE',  ( 1.000000000000000000, 0.000000000000000000, 0.000000000000000000 ) ) ;
#19 = CYLINDRICAL_SURFACE ( 'NONE', #3, 7.999999999999996447 ) ;
#20 = CIRCLE ( 'NONE', #270, 7.599999999999995204 ) ;
#21 = PLANE ( 'NONE',  #158 ) ;
#22 = CARTESIAN_POINT ( 'NONE',  ( 17.34999999999999432, 0.000000000000000000, 8.000000000000000000 ) ) ;
#23 = CARTESIAN_POINT ( 'NONE',  ( -19.50000000000000000, 0.000000000000000000, 0.000000000000000000 ) ) ;
#24 = VERTEX_POINT ( 'NONE', #71 ) ;
#25 = EDGE_CURVE ( 'NONE', #181, #181, #150, .T. ) ;
#26 = ORIENTED_EDGE ( 'NONE', *, *, #227, .T. ) ;
#27 = ORIENTED_EDGE ( 'NONE', *, *, #91, .F. ) ;
#28 = APPLICATION_PROTOCOL_DEFINITION ( 'draft international standard', 'automotive_design', 1998, #264 ) ;
#29 = ORIENTED_EDGE ( 'NONE', *, *, #231, .T. ) ;
#30 = SURFACE_STYLE_USAGE ( .BOTH. , #189 ) ;
#31 = PLANE ( 'NONE',  #35 ) ;
#32 =( NAMED_UNIT ( * ) PLANE_ANGLE_UNIT ( ) SI_UNIT ( $, .RADIAN. ) );
#33 = DIRECTION ( 'NONE',  ( -0.000000000000000000, 0.000000000000000000, 1.000000000000000000 ) ) ;
#34 = DIRECTION ( 'NONE',  ( -1.000000000000000000, -0.000000000000000000, -0.000000000000000000 ) ) ;
#35 = AXIS2_PLACEMENT_3D ( 'NONE', #82, #245, #148 ) ;
#36 = ADVANCED_FACE ( 'NONE', ( #57, #230 ), #21, .F. ) ;
#37 = ORIENTED_EDGE ( 'NONE', *, *, #62, .F. ) ;
#38 = DIRECTION ( 'NONE',  ( -1.000000000000000000, -0.000000000000000000, -0.000000000000000000 ) ) ;
#39 = CARTESIAN_POINT ( 'NONE',  ( -16.25000000000000000, 0.000000000000000000, 7.999999999999996447 ) ) ;
#40 = ORIENTED_EDGE ( 'NONE', *, *, #84, .F. ) ;
#41 = MECHANICAL_DESIGN_GEOMETRIC_PRESENTATION_REPRESENTATION (  '', ( #48 ), #200 ) ;
#42 = VERTEX_POINT ( 'NONE', #253 ) ;
#43 = VERTEX_POINT ( 'NONE', #278 ) ;
#44 = ADVANCED_FACE ( 'NONE', ( #183 ), #119, .F. ) ;
#45 = AXIS2_PLACEMENT_3D ( 'NONE', #296, #132, #33 ) ;
#46 = CARTESIAN_POINT ( 'NONE',  ( 19.50000000000000000, 0.000000000000000000, 7.422649730810366719 ) ) ;
#47 = CARTESIAN_POINT ( 'NONE',  ( 18.50000000000000000, 0.000000000000000000, 0.000000000000000000 ) ) ;
#48 = STYLED_ITEM ( 'NONE', ( #218 ), #103 ) ;
#49 = EDGE_CURVE ( 'NONE', #24, #24, #14, .T. ) ;
#50 = DIRECTION ( 'NONE',  ( -1.000000000000000000, 0.000000000000000000, -0.000000000000000000 ) ) ;
#51 = CYLINDRICAL_SURFACE ( 'NONE', #87, 8.000000000000000000 ) ;
#52 = ADVANCED_FACE ( 'NONE', ( #2, #165 ), #51, .T. ) ;
#53 = DIRECTION ( 'NONE',  ( 0.000000000000000000, 0.000000000000000000, 1.000000000000000000 ) ) ;
#54 = DIRECTION ( 'NONE',  ( -1.000000000000000000, -0.000000000000000000, -0.000000000000000000 ) ) ;
#55 = AXIS2_PLACEMENT_3D ( 'NONE', #174, #38, #12 ) ;
#56 = DIRECTION ( 'NONE',  ( 0.000000000000000000, 0.000000000000000000, 1.000000000000000000 ) ) ;
#57 = FACE_BOUND ( 'NONE', #284, .T. ) ;
#58 =( LENGTH_UNIT ( ) NAMED_UNIT ( * ) SI_UNIT ( .MILLI., .METRE. ) );
#59 = SURFACE_SIDE_STYLE ('',( #128 ) ) ;
#60 = AXIS2_PLACEMENT_3D ( 'NONE', #219, #18, #269 ) ;
#61 = CYLINDRICAL_SURFACE ( 'NONE', #152, 7.599999999999999645 ) ;
#62 = EDGE_CURVE ( 'NONE', #249, #249, #93, .T. ) ;
#63 = SURFACE_STYLE_USAGE ( .BOTH. , #59 ) ;
#64 = AXIS2_PLACEMENT_3D ( 'NONE', #99, #163, #256 ) ;
#65 = ORIENTED_EDGE ( 'NONE', *, *, #15, .T. ) ;
#66 = DIRECTION ( 'NONE',  ( 0.000000000000000000, 0.000000000000000000, 1.000000000000000000 ) ) ;
#67 = ORIENTED_EDGE ( 'NONE', *, *, #91, .T. ) ;
#68 = CARTESIAN_POINT ( 'NONE',  ( -18.50000000000000000, 0.000000000000000000, 7.999999999999994671 ) ) ;
#69 =( GEOMETRIC_REPRESENTATION_CONTEXT ( 3 ) GLOBAL_UNCERTAINTY_ASSIGNED_CONTEXT ( ( #187 ) ) GLOBAL_UNIT_ASSIGNED_CONTEXT ( ( #240, #32, #110 ) ) REPRESENTATION_CONTEXT ( 'NONE', 'WORKASPACE' ) );
#70 = EDGE_LOOP ( 'NONE', ( #168 ) ) ;
#71 = CARTESIAN_POINT ( 'NONE',  ( 18.50000000000000000, 0.000000000000000000, 8.000000000000000000 ) ) ;
#72 = ADVANCED_FACE ( 'NONE', ( #221, #126 ), #261, .T. ) ;
#73 = AXIS2_PLACEMENT_3D ( 'NONE', #238, #258, #263 ) ;
#74 = DIRECTION ( 'NONE',  ( 0.000000000000000000, 0.000000000000000000, 1.000000000000000000 ) ) ;
#75 = EDGE_LOOP ( 'NONE', ( #153 ) ) ;
#76 = VERTEX_POINT ( 'NONE', #39 ) ;
#77 = EDGE_LOOP ( 'NONE', ( #237 ) ) ;
#78 = FACE_OUTER_BOUND ( 'NONE', #170, .T. ) ;
#79 = EDGE_LOOP ( 'NONE', ( #17 ) ) ;
#80 = DIRECTION ( 'NONE',  ( 0.000000000000000000, 0.000000000000000000, 1.000000000000000000 ) ) ;
#81 = EDGE_CURVE ( 'NONE', #76, #76, #248, .T. ) ;
#82 = CARTESIAN_POINT ( 'NONE',  ( -16.25000000000000000, 7.999999999999996447, 0.000000000000000000 ) ) ;
#83 = STYLED_ITEM ( 'NONE', ( #193 ), #169 ) ;
#84 = EDGE_CURVE ( 'NONE', #43, #43, #222, .T. ) ;
#85 = DIRECTION ( 'NONE',  ( -1.000000000000000000, -0.000000000000000000, -0.000000000000000000 ) ) ;
#86 = CIRCLE ( 'NONE', #73, 7.999999999999996447 ) ;
#87 = AXIS2_PLACEMENT_3D ( 'NONE', #235, #289, #178 ) ;
#88 = DIRECTION ( 'NONE',  ( -1.000000000000000000, -0.000000000000000000, -0.000000000000000000 ) ) ;
#89 = CARTESIAN_POINT ( 'NONE',  ( -16.25000000000000000, 0.000000000000000000, 0.000000000000000000 ) ) ;
#90 = ORIENTED_EDGE ( 'NONE', *, *, #25, .F. ) ;
#91 = EDGE_CURVE ( 'NONE', #97, #97, #293, .T. ) ;
#92 = CARTESIAN_POINT ( 'NONE',  ( -17.34999999999999787, 0.000000000000000000, 7.999999999999996447 ) ) ;
#93 = CIRCLE ( 'NONE', #236, 7.422649730810366719 ) ;
#94 =( LENGTH_UNIT ( ) NAMED_UNIT ( * ) SI_UNIT ( .MILLI., .METRE. ) );
#95 = PLANE ( 'NONE',  #215 ) ;
#96 = DIRECTION ( 'NONE',  ( 0.000000000000000000, 0.000000000000000000, -1.000000000000000000 ) ) ;
#97 = VERTEX_POINT ( 'NONE', #22 ) ;
#98 = AXIS2_PLACEMENT_3D ( 'NONE', #137, #142, #74 ) ;
#99 = CARTESIAN_POINT ( 'NONE',  ( -19.50000000000000000, 7.422649730810366719, 0.000000000000000000 ) ) ;
#100 = FACE_OUTER_BOUND ( 'NONE', #273, .T. ) ;
#101 = EDGE_LOOP ( 'NONE', ( #40 ) ) ;
#102 = ORIENTED_EDGE ( 'NONE', *, *, #227, .F. ) ;
#103 = ADVANCED_BREP_SHAPE_REPRESENTATION ( '76.04.06.0006', ( #169, #288 ), #121 ) ;
#104 = EDGE_LOOP ( 'NONE', ( #27 ) ) ;
#105 = AXIS2_PLACEMENT_3D ( 'NONE', #206, #157, #280 ) ;
#106 = FACE_OUTER_BOUND ( 'NONE', #223, .T. ) ;
#107 = CARTESIAN_POINT ( 'NONE',  ( 16.25000000000000355, 0.000000000000000000, 0.000000000000000000 ) ) ;
#108 = DIRECTION ( 'NONE',  ( 0.000000000000000000, 0.000000000000000000, 1.000000000000000000 ) ) ;
#109 = AXIS2_PLACEMENT_3D ( 'NONE', #89, #34, #180 ) ;
#110 =( NAMED_UNIT ( * ) SI_UNIT ( $, .STERADIAN. ) SOLID_ANGLE_UNIT ( ) );
#111 = PRODUCT_DEFINITION_FORMATION_WITH_SPECIFIED_SOURCE ( 'ANY', '', #129, .NOT_KNOWN. ) ;
#112 = PRODUCT_RELATED_PRODUCT_CATEGORY ( 'part', '', ( #129 ) ) ;
#113 = FACE_OUTER_BOUND ( 'NONE', #209, .T. ) ;
#114 = ADVANCED_FACE ( 'NONE', ( #216, #113 ), #171, .T. ) ;
#115 = CARTESIAN_POINT ( 'NONE',  ( -19.50000000000000000, 0.000000000000000000, 0.000000000000000000 ) ) ;
#116 = VERTEX_POINT ( 'NONE', #203 ) ;
#117 = EDGE_LOOP ( 'NONE', ( #198 ) ) ;
#118 = DIRECTION ( 'NONE',  ( -1.000000000000000000, 0.000000000000000000, -0.000000000000000000 ) ) ;
#119 = PLANE ( 'NONE',  #64 ) ;
#120 = VERTEX_POINT ( 'NONE', #68 ) ;
#121 =( GEOMETRIC_REPRESENTATION_CONTEXT ( 3 ) GLOBAL_UNCERTAINTY_ASSIGNED_CONTEXT ( ( #211 ) ) GLOBAL_UNIT_ASSIGNED_CONTEXT ( ( #94, #279, #204 ) ) REPRESENTATION_CONTEXT ( 'NONE', 'WORKASPACE' ) );
#122 = EDGE_LOOP ( 'NONE', ( #286 ) ) ;
#123 = ORIENTED_EDGE ( 'NONE', *, *, #167, .T. ) ;
#124 = DIRECTION ( 'NONE',  ( -1.000000000000000000, -0.000000000000000000, -0.000000000000000000 ) ) ;
#125 = FILL_AREA_STYLE ('',( #275 ) ) ;
#126 = FACE_OUTER_BOUND ( 'NONE', #190, .T. ) ;
#127 = FACE_OUTER_BOUND ( 'NONE', #7, .T. ) ;
#128 = SURFACE_STYLE_FILL_AREA ( #125 ) ;
#129 = PRODUCT ( '76.04.06.0006', '76.04.06.0006', '', ( #146 ) ) ;
#130 = UNCERTAINTY_MEASURE_WITH_UNIT (LENGTH_MEASURE( 1.000000000000000082E-05 ), #58, 'distance_accuracy_value', 'NONE');
#131 = ORIENTED_EDGE ( 'NONE', *, *, #49, .F. ) ;
#132 = DIRECTION ( 'NONE',  ( -1.000000000000000000, 0.000000000000000000, -0.000000000000000000 ) ) ;
#133 = ADVANCED_FACE ( 'NONE', ( #155, #199 ), #31, .F. ) ;
#134 = DIRECTION ( 'NONE',  ( -1.000000000000000000, -0.000000000000000000, -0.000000000000000000 ) ) ;
#135 = AXIS2_PLACEMENT_3D ( 'NONE', #260, #54, #56 ) ;
#136 = VERTEX_POINT ( 'NONE', #184 ) ;
#137 = CARTESIAN_POINT ( 'NONE',  ( -18.50000000000000000, 0.000000000000000000, 0.000000000000000000 ) ) ;
#138 = AXIS2_PLACEMENT_3D ( 'NONE', #47, #207, #140 ) ;
#139 = VERTEX_POINT ( 'NONE', #92 ) ;
#140 = DIRECTION ( 'NONE',  ( 0.000000000000000000, 0.000000000000000000, 1.000000000000000000 ) ) ;
#141 = PRESENTATION_LAYER_ASSIGNMENT (  '', '', ( #48 ) ) ;
#142 = DIRECTION ( 'NONE',  ( -1.000000000000000000, -0.000000000000000000, -0.000000000000000000 ) ) ;
#143 = DIRECTION ( 'NONE',  ( 0.000000000000000000, 0.000000000000000000, 1.000000000000000000 ) ) ;
#144 = COLOUR_RGB ( '',0.8274509803921568096, 0.8392156862745098200, 0.8274509803921568096 ) ;
#145 = ORIENTED_EDGE ( 'NONE', *, *, #81, .F. ) ;
#146 = PRODUCT_CONTEXT ( 'NONE', #241, 'mechanical' ) ;
#147 = EDGE_LOOP ( 'NONE', ( #67 ) ) ;
#148 = DIRECTION ( 'NONE',  ( 0.000000000000000000, 0.000000000000000000, -1.000000000000000000 ) ) ;
#149 = CARTESIAN_POINT ( 'NONE',  ( -19.50000000000000000, 0.000000000000000000, 0.000000000000000000 ) ) ;
#150 = CIRCLE ( 'NONE', #268, 7.600000000000000533 ) ;
#151 = DIRECTION ( 'NONE',  ( -1.000000000000000000, -0.000000000000000000, -0.000000000000000000 ) ) ;
#152 = AXIS2_PLACEMENT_3D ( 'NONE', #149, #85, #242 ) ;
#153 = ORIENTED_EDGE ( 'NONE', *, *, #15, .F. ) ;
#154 = ADVANCED_FACE ( 'NONE', ( #294 ), #292, .F. ) ;
#155 = FACE_BOUND ( 'NONE', #159, .T. ) ;
#156 = AXIS2_PLACEMENT_3D ( 'NONE', #217, #88, #194 ) ;
#157 = DIRECTION ( 'NONE',  ( -1.000000000000000000, -0.000000000000000000, -0.000000000000000000 ) ) ;
#158 = AXIS2_PLACEMENT_3D ( 'NONE', #205, #300, #96 ) ;
#159 = EDGE_LOOP ( 'NONE', ( #233 ) ) ;
#160 = DIRECTION ( 'NONE',  ( -1.000000000000000000, -0.000000000000000000, -0.000000000000000000 ) ) ;
#161 = DIRECTION ( 'NONE',  ( 0.000000000000000000, 0.000000000000000000, 1.000000000000000000 ) ) ;
#162 = FACE_OUTER_BOUND ( 'NONE', #101, .T. ) ;
#163 = DIRECTION ( 'NONE',  ( 1.000000000000000000, 0.000000000000000000, 0.000000000000000000 ) ) ;
#164 = VERTEX_POINT ( 'NONE', #257 ) ;
#165 = FACE_OUTER_BOUND ( 'NONE', #77, .T. ) ;
#166 = EDGE_LOOP ( 'NONE', ( #185 ) ) ;
#167 = EDGE_CURVE ( 'NONE', #42, #42, #276, .T. ) ;
#168 = ORIENTED_EDGE ( 'NONE', *, *, #84, .T. ) ;
#169 = MANIFOLD_SOLID_BREP ( 'Revolve1', #266 ) ;
#170 = EDGE_LOOP ( 'NONE', ( #145 ) ) ;
#171 = CYLINDRICAL_SURFACE ( 'NONE', #156, 7.599999999999996092 ) ;
#172 = DIRECTION ( 'NONE',  ( 1.000000000000000000, 0.000000000000000000, 0.000000000000000000 ) ) ;
#173 = CIRCLE ( 'NONE', #10, 7.599999999999998757 ) ;
#174 = CARTESIAN_POINT ( 'NONE',  ( 17.34999999999999432, 0.000000000000000000, 0.000000000000000000 ) ) ;
#175 = ADVANCED_FACE ( 'NONE', ( #106, #192 ), #61, .T. ) ;
#176 = CIRCLE ( 'NONE', #98, 7.999999999999994671 ) ;
#177 = ADVANCED_FACE ( 'NONE', ( #127, #182 ), #246, .T. ) ;
#178 = DIRECTION ( 'NONE',  ( 0.000000000000000000, 0.000000000000000000, 1.000000000000000000 ) ) ;
#179 = EDGE_LOOP ( 'NONE', ( #251 ) ) ;
#180 = DIRECTION ( 'NONE',  ( 0.000000000000000000, 0.000000000000000000, 1.000000000000000000 ) ) ;
#181 = VERTEX_POINT ( 'NONE', #1 ) ;
#182 = FACE_BOUND ( 'NONE', #5, .T. ) ;
#183 = FACE_OUTER_BOUND ( 'NONE', #79, .T. ) ;
#184 = CARTESIAN_POINT ( 'NONE',  ( -17.35000000000000142, 0.000000000000000000, 7.599999999999995204 ) ) ;
#185 = ORIENTED_EDGE ( 'NONE', *, *, #16, .F. ) ;
#186 = DIRECTION ( 'NONE',  ( -0.000000000000000000, 0.000000000000000000, 1.000000000000000000 ) ) ;
#187 = UNCERTAINTY_MEASURE_WITH_UNIT (LENGTH_MEASURE( 1.000000000000000082E-05 ), #240, 'distance_accuracy_value', 'NONE');
#188 = EDGE_LOOP ( 'NONE', ( #26 ) ) ;
#189 = SURFACE_SIDE_STYLE ('',( #291 ) ) ;
#190 = EDGE_LOOP ( 'NONE', ( #29 ) ) ;
#191 = DIRECTION ( 'NONE',  ( -1.000000000000000000, -0.000000000000000000, -0.000000000000000000 ) ) ;
#192 = FACE_OUTER_BOUND ( 'NONE', #188, .T. ) ;
#193 = PRESENTATION_STYLE_ASSIGNMENT (( #63 ) ) ;
#194 = DIRECTION ( 'NONE',  ( 0.000000000000000000, 0.000000000000000000, 1.000000000000000000 ) ) ;
#195 = EDGE_CURVE ( 'NONE', #136, #136, #20, .T. ) ;
#196 = PRODUCT_DEFINITION_CONTEXT ( 'detailed design', #264, 'design' ) ;
#197 = DIRECTION ( 'NONE',  ( -1.000000000000000000, -0.000000000000000000, -0.000000000000000000 ) ) ;
#198 = ORIENTED_EDGE ( 'NONE', *, *, #195, .F. ) ;
#199 = FACE_OUTER_BOUND ( 'NONE', #122, .T. ) ;
#200 =( GEOMETRIC_REPRESENTATION_CONTEXT ( 3 ) GLOBAL_UNCERTAINTY_ASSIGNED_CONTEXT ( ( #130 ) ) GLOBAL_UNIT_ASSIGNED_CONTEXT ( ( #58, #8, #259 ) ) REPRESENTATION_CONTEXT ( 'NONE', 'WORKASPACE' ) );
#201 = FACE_BOUND ( 'NONE', #283, .T. ) ;
#202 = MECHANICAL_DESIGN_GEOMETRIC_PRESENTATION_REPRESENTATION (  '', ( #83 ), #69 ) ;
#203 = CARTESIAN_POINT ( 'NONE',  ( -19.50000000000000000, 0.000000000000000000, 7.422649730810366719 ) ) ;
#204 =( NAMED_UNIT ( * ) SI_UNIT ( $, .STERADIAN. ) SOLID_ANGLE_UNIT ( ) );
#205 = CARTESIAN_POINT ( 'NONE',  ( 17.34999999999999787, 8.000000000000000000, 0.000000000000000000 ) ) ;
#206 = CARTESIAN_POINT ( 'NONE',  ( 19.50000000000000000, 0.000000000000000000, 0.000000000000000000 ) ) ;
#207 = DIRECTION ( 'NONE',  ( -1.000000000000000000, -0.000000000000000000, -0.000000000000000000 ) ) ;
#208 = CARTESIAN_POINT ( 'NONE',  ( -17.35000000000000142, 0.000000000000000000, 0.000000000000000000 ) ) ;
#209 = EDGE_LOOP ( 'NONE', ( #123 ) ) ;
#210 = FILL_AREA_STYLE ('',( #213 ) ) ;
#211 = UNCERTAINTY_MEASURE_WITH_UNIT (LENGTH_MEASURE( 1.000000000000000082E-05 ), #94, 'distance_accuracy_value', 'NONE');
#212 = ORIENTED_EDGE ( 'NONE', *, *, #195, .T. ) ;
#213 = FILL_AREA_STYLE_COLOUR ( '', #247 ) ;
#214 = ORIENTED_EDGE ( 'NONE', *, *, #25, .T. ) ;
#215 = AXIS2_PLACEMENT_3D ( 'NONE', #255, #118, #299 ) ;
#216 = FACE_OUTER_BOUND ( 'NONE', #117, .T. ) ;
#217 = CARTESIAN_POINT ( 'NONE',  ( -19.50000000000000000, 0.000000000000000000, 0.000000000000000000 ) ) ;
#218 = PRESENTATION_STYLE_ASSIGNMENT (( #30 ) ) ;
#219 = CARTESIAN_POINT ( 'NONE',  ( -18.50000000000000000, 0.000000000000000000, 0.000000000000000000 ) ) ;
#220 = AXIS2_PLACEMENT_3D ( 'NONE', #107, #151, #66 ) ;
#221 = FACE_BOUND ( 'NONE', #166, .T. ) ;
#222 = CIRCLE ( 'NONE', #220, 8.000000000000000000 ) ;
#223 = EDGE_LOOP ( 'NONE', ( #90 ) ) ;
#224 = CARTESIAN_POINT ( 'NONE',  ( 19.50000000000000000, 0.000000000000000000, 0.000000000000000000 ) ) ;
#225 = CARTESIAN_POINT ( 'NONE',  ( 17.35000000000000142, 0.000000000000000000, 0.000000000000000000 ) ) ;
#226 = PLANE ( 'NONE',  #254 ) ;
#227 = EDGE_CURVE ( 'NONE', #164, #164, #173, .T. ) ;
#228 = PRESENTATION_LAYER_ASSIGNMENT (  '', '', ( #83 ) ) ;
#229 = FACE_BOUND ( 'NONE', #271, .T. ) ;
#230 = FACE_OUTER_BOUND ( 'NONE', #147, .T. ) ;
#231 = EDGE_CURVE ( 'NONE', #120, #120, #176, .T. ) ;
#232 = FACE_OUTER_BOUND ( 'NONE', #75, .T. ) ;
#233 = ORIENTED_EDGE ( 'NONE', *, *, #167, .F. ) ;
#234 = FACE_OUTER_BOUND ( 'NONE', #179, .T. ) ;
#235 = CARTESIAN_POINT ( 'NONE',  ( -19.50000000000000000, 0.000000000000000000, 0.000000000000000000 ) ) ;
#236 = AXIS2_PLACEMENT_3D ( 'NONE', #224, #197, #13 ) ;
#237 = ORIENTED_EDGE ( 'NONE', *, *, #49, .T. ) ;
#238 = CARTESIAN_POINT ( 'NONE',  ( -17.34999999999999787, 0.000000000000000000, 0.000000000000000000 ) ) ;
#239 = CIRCLE ( 'NONE', #244, 7.422649730810366719 ) ;
#240 =( LENGTH_UNIT ( ) NAMED_UNIT ( * ) SI_UNIT ( .MILLI., .METRE. ) );
#241 = APPLICATION_CONTEXT ( 'automotive_design' ) ;
#242 = DIRECTION ( 'NONE',  ( 0.000000000000000000, 0.000000000000000000, 1.000000000000000000 ) ) ;
#243 = PRODUCT_DEFINITION_SHAPE ( 'NONE', 'NONE',  #295 ) ;
#244 = AXIS2_PLACEMENT_3D ( 'NONE', #23, #124, #143 ) ;
#245 = DIRECTION ( 'NONE',  ( 1.000000000000000000, 0.000000000000000000, 0.000000000000000000 ) ) ;
#246 = CONICAL_SURFACE ( 'NONE', #105, 7.422649730810366719, 0.5235987755983040337 ) ;
#247 = COLOUR_RGB ( '',0.8274509803921568096, 0.8392156862745098200, 0.8274509803921568096 ) ;
#248 = CIRCLE ( 'NONE', #298, 7.999999999999996447 ) ;
#249 = VERTEX_POINT ( 'NONE', #46 ) ;
#250 = ADVANCED_FACE ( 'NONE', ( #232, #229 ), #95, .F. ) ;
#251 = ORIENTED_EDGE ( 'NONE', *, *, #231, .F. ) ;
#252 = DIRECTION ( 'NONE',  ( 0.000000000000000000, 0.000000000000000000, 1.000000000000000000 ) ) ;
#253 = CARTESIAN_POINT ( 'NONE',  ( -16.25000000000000000, 0.000000000000000000, 7.599999999999996092 ) ) ;
#254 = AXIS2_PLACEMENT_3D ( 'NONE', #4, #50, #186 ) ;
#255 = CARTESIAN_POINT ( 'NONE',  ( -17.34999999999999787, 7.599999999999995204, 0.000000000000000000 ) ) ;
#256 = DIRECTION ( 'NONE',  ( 0.000000000000000000, 0.000000000000000000, -1.000000000000000000 ) ) ;
#257 = CARTESIAN_POINT ( 'NONE',  ( 17.35000000000000142, 0.000000000000000000, 7.599999999999998757 ) ) ;
#258 = DIRECTION ( 'NONE',  ( -1.000000000000000000, -0.000000000000000000, -0.000000000000000000 ) ) ;
#259 =( NAMED_UNIT ( * ) SI_UNIT ( $, .STERADIAN. ) SOLID_ANGLE_UNIT ( ) );
#260 = CARTESIAN_POINT ( 'NONE',  ( -19.50000000000000000, 0.000000000000000000, 0.000000000000000000 ) ) ;
#261 = CONICAL_SURFACE ( 'NONE', #60, 7.999999999999994671, 0.5235987755983001479 ) ;
#262 = CYLINDRICAL_SURFACE ( 'NONE', #135, 7.999999999999998224 ) ;
#263 = DIRECTION ( 'NONE',  ( 0.000000000000000000, 0.000000000000000000, 1.000000000000000000 ) ) ;
#264 = APPLICATION_CONTEXT ( 'automotive_design' ) ;
#265 = DIRECTION ( 'NONE',  ( -1.000000000000000000, -0.000000000000000000, -0.000000000000000000 ) ) ;
#266 = CLOSED_SHELL ( 'NONE', ( #154, #177, #52, #36, #175, #274, #6, #133, #114, #250, #290, #72, #44 ) ) ;
#267 = APPLICATION_PROTOCOL_DEFINITION ( 'draft international standard', 'automotive_design', 1998, #241 ) ;
#268 = AXIS2_PLACEMENT_3D ( 'NONE', #9, #191, #80 ) ;
#269 = DIRECTION ( 'NONE',  ( 0.000000000000000000, 0.000000000000000000, -1.000000000000000000 ) ) ;
#270 = AXIS2_PLACEMENT_3D ( 'NONE', #208, #134, #161 ) ;
#271 = EDGE_LOOP ( 'NONE', ( #212 ) ) ;
#272 = CARTESIAN_POINT ( 'NONE',  ( -16.25000000000000000, 0.000000000000000000, 0.000000000000000000 ) ) ;
#273 = EDGE_LOOP ( 'NONE', ( #65 ) ) ;
#274 = ADVANCED_FACE ( 'NONE', ( #162, #201 ), #226, .F. ) ;
#275 = FILL_AREA_STYLE_COLOUR ( '', #144 ) ;
#276 = CIRCLE ( 'NONE', #109, 7.599999999999996092 ) ;
#277 = EDGE_LOOP ( 'NONE', ( #37 ) ) ;
#278 = CARTESIAN_POINT ( 'NONE',  ( 16.25000000000000355, 0.000000000000000000, 8.000000000000000000 ) ) ;
#279 =( NAMED_UNIT ( * ) PLANE_ANGLE_UNIT ( ) SI_UNIT ( $, .RADIAN. ) );
#280 = DIRECTION ( 'NONE',  ( 0.000000000000000000, 0.000000000000000000, 1.000000000000000000 ) ) ;
#281 = FACE_OUTER_BOUND ( 'NONE', #70, .T. ) ;
#282 = DIRECTION ( 'NONE',  ( 0.000000000000000000, 0.000000000000000000, 1.000000000000000000 ) ) ;
#283 = EDGE_LOOP ( 'NONE', ( #214 ) ) ;
#284 = EDGE_LOOP ( 'NONE', ( #102 ) ) ;
#285 = ORIENTED_EDGE ( 'NONE', *, *, #62, .T. ) ;
#286 = ORIENTED_EDGE ( 'NONE', *, *, #81, .T. ) ;
#287 = SHAPE_DEFINITION_REPRESENTATION ( #243, #103 ) ;
#288 = AXIS2_PLACEMENT_3D ( 'NONE', #11, #53, #172 ) ;
#289 = DIRECTION ( 'NONE',  ( -1.000000000000000000, -0.000000000000000000, -0.000000000000000000 ) ) ;
#290 = ADVANCED_FACE ( 'NONE', ( #234, #100 ), #19, .T. ) ;
#291 = SURFACE_STYLE_FILL_AREA ( #210 ) ;
#292 = PLANE ( 'NONE',  #45 ) ;
#293 = CIRCLE ( 'NONE', #55, 8.000000000000000000 ) ;
#294 = FACE_OUTER_BOUND ( 'NONE', #277, .T. ) ;
#295 = PRODUCT_DEFINITION ( 'UNKNOWN', '', #111, #196 ) ;
#296 = CARTESIAN_POINT ( 'NONE',  ( 19.50000000000000000, 0.000000000000000000, 0.000000000000000000 ) ) ;
#297 = DIRECTION ( 'NONE',  ( -1.000000000000000000, -0.000000000000000000, -0.000000000000000000 ) ) ;
#298 = AXIS2_PLACEMENT_3D ( 'NONE', #272, #265, #108 ) ;
#299 = DIRECTION ( 'NONE',  ( -0.000000000000000000, 0.000000000000000000, 1.000000000000000000 ) ) ;
#300 = DIRECTION ( 'NONE',  ( 1.000000000000000000, 0.000000000000000000, 0.000000000000000000 ) ) ;
ENDSEC;
END-ISO-10303-21;
