ISO-10303-21;
HEADER;
FILE_DESCRIPTION (( 'STEP AP214' ),
    '1' );
FILE_NAME ('76.04.06.0005.step',
    '2021-04-02T18:04:28',
    ( '' ),
    ( '' ),
    'SwSTEP 2.0',
    'SolidWorks 2021',
    '' );
FILE_SCHEMA (( 'AUTOMOTIVE_DESIGN' ));
ENDSEC;

DATA;
#1 = DIRECTION ( 'NONE',  ( -1.000000000000000000, 0.000000000000000000, -0.000000000000000000 ) ) ;
#2 = CARTESIAN_POINT ( 'NONE',  ( 13.74999999999999822, 0.000000000000000000, 0.000000000000000000 ) ) ;
#3 = CARTESIAN_POINT ( 'NONE',  ( -14.84999999999999787, 0.000000000000000000, 6.699999999999997513 ) ) ;
#4 = DIRECTION ( 'NONE',  ( 0.000000000000000000, 0.000000000000000000, 1.000000000000000000 ) ) ;
#5 = ADVANCED_FACE ( 'NONE', ( #240, #8 ), #29, .T. ) ;
#6 = CARTESIAN_POINT ( 'NONE',  ( 14.85000000000000142, 0.000000000000000000, 0.000000000000000000 ) ) ;
#7 = AXIS2_PLACEMENT_3D ( 'NONE', #32, #273, #14 ) ;
#8 = FACE_OUTER_BOUND ( 'NONE', #262, .T. ) ;
#9 = SURFACE_SIDE_STYLE ('',( #42 ) ) ;
#10 = DIRECTION ( 'NONE',  ( 0.000000000000000000, 0.000000000000000000, 1.000000000000000000 ) ) ;
#11 = CARTESIAN_POINT ( 'NONE',  ( -17.50000000000000000, 0.000000000000000000, 0.000000000000000000 ) ) ;
#12 = DIRECTION ( 'NONE',  ( -1.000000000000000000, -0.000000000000000000, -0.000000000000000000 ) ) ;
#13 = AXIS2_PLACEMENT_3D ( 'NONE', #287, #118, #53 ) ;
#14 = DIRECTION ( 'NONE',  ( -0.000000000000000000, 0.000000000000000000, 1.000000000000000000 ) ) ;
#15 = ADVANCED_FACE ( 'NONE', ( #47, #194 ), #25, .F. ) ;
#16 = AXIS2_PLACEMENT_3D ( 'NONE', #129, #12, #63 ) ;
#17 = EDGE_LOOP ( 'NONE', ( #218 ) ) ;
#18 = ORIENTED_EDGE ( 'NONE', *, *, #112, .T. ) ;
#19 = PLANE ( 'NONE',  #7 ) ;
#20 = CARTESIAN_POINT ( 'NONE',  ( -17.50000000000000000, 0.000000000000000000, 0.000000000000000000 ) ) ;
#21 = EDGE_LOOP ( 'NONE', ( #235 ) ) ;
#22 = CARTESIAN_POINT ( 'NONE',  ( 17.50000000000000000, 0.000000000000000000, 0.000000000000000000 ) ) ;
#23 = ORIENTED_EDGE ( 'NONE', *, *, #85, .F. ) ;
#24 = FACE_OUTER_BOUND ( 'NONE', #91, .T. ) ;
#25 = PLANE ( 'NONE',  #13 ) ;
#26 = AXIS2_PLACEMENT_3D ( 'NONE', #248, #35, #83 ) ;
#27 = CARTESIAN_POINT ( 'NONE',  ( 13.74999999999999822, 0.000000000000000000, 7.000000000000000888 ) ) ;
#28 = DIRECTION ( 'NONE',  ( -1.000000000000000000, -0.000000000000000000, -0.000000000000000000 ) ) ;
#29 = CYLINDRICAL_SURFACE ( 'NONE', #265, 6.999999999999999112 ) ;
#30 = EDGE_LOOP ( 'NONE', ( #272 ) ) ;
#31 = STYLED_ITEM ( 'NONE', ( #291 ), #168 ) ;
#32 = CARTESIAN_POINT ( 'NONE',  ( 13.74999999999999822, 6.700000000000000178, 0.000000000000000000 ) ) ;
#33 = CARTESIAN_POINT ( 'NONE',  ( 14.84999999999999787, 6.999999999999999112, 0.000000000000000000 ) ) ;
#34 = CIRCLE ( 'NONE', #155, 6.422649730810366719 ) ;
#35 = DIRECTION ( 'NONE',  ( -1.000000000000000000, -0.000000000000000000, -0.000000000000000000 ) ) ;
#36 = AXIS2_PLACEMENT_3D ( 'NONE', #171, #243, #224 ) ;
#37 = EDGE_LOOP ( 'NONE', ( #276 ) ) ;
#38 = CYLINDRICAL_SURFACE ( 'NONE', #138, 6.999999999999999112 ) ;
#39 = CARTESIAN_POINT ( 'NONE',  ( -16.50000000000000000, 0.000000000000000000, 6.999999999999995559 ) ) ;
#40 = EDGE_LOOP ( 'NONE', ( #170 ) ) ;
#41 = VERTEX_POINT ( 'NONE', #187 ) ;
#42 = SURFACE_STYLE_FILL_AREA ( #162 ) ;
#43 = DIRECTION ( 'NONE',  ( -1.000000000000000000, -0.000000000000000000, -0.000000000000000000 ) ) ;
#44 = EDGE_CURVE ( 'NONE', #136, #136, #182, .T. ) ;
#45 = DIRECTION ( 'NONE',  ( 0.000000000000000000, 0.000000000000000000, 1.000000000000000000 ) ) ;
#46 = AXIS2_PLACEMENT_3D ( 'NONE', #259, #285, #172 ) ;
#47 = FACE_OUTER_BOUND ( 'NONE', #17, .T. ) ;
#48 = EDGE_CURVE ( 'NONE', #191, #191, #223, .T. ) ;
#49 = AXIS2_PLACEMENT_3D ( 'NONE', #232, #126, #50 ) ;
#50 = DIRECTION ( 'NONE',  ( 0.000000000000000000, 0.000000000000000000, 1.000000000000000000 ) ) ;
#51 = SURFACE_STYLE_USAGE ( .BOTH. , #9 ) ;
#52 = EDGE_LOOP ( 'NONE', ( #89 ) ) ;
#53 = DIRECTION ( 'NONE',  ( -0.000000000000000000, 0.000000000000000000, 1.000000000000000000 ) ) ;
#54 = PRESENTATION_LAYER_ASSIGNMENT (  '', '', ( #293 ) ) ;
#55 =( NAMED_UNIT ( * ) SI_UNIT ( $, .STERADIAN. ) SOLID_ANGLE_UNIT ( ) );
#56 = CLOSED_SHELL ( 'NONE', ( #249, #167, #175, #245, #147, #195, #5, #110, #268, #15, #296, #294, #216 ) ) ;
#57 = SURFACE_STYLE_FILL_AREA ( #88 ) ;
#58 = FACE_BOUND ( 'NONE', #270, .T. ) ;
#59 = EDGE_CURVE ( 'NONE', #113, #113, #86, .T. ) ;
#60 = AXIS2_PLACEMENT_3D ( 'NONE', #164, #158, #119 ) ;
#61 = PRODUCT ( '76.04.06.0005', '76.04.06.0005', '', ( #254 ) ) ;
#62 = ORIENTED_EDGE ( 'NONE', *, *, #209, .F. ) ;
#63 = DIRECTION ( 'NONE',  ( 0.000000000000000000, 0.000000000000000000, 1.000000000000000000 ) ) ;
#64 = AXIS2_PLACEMENT_3D ( 'NONE', #33, #130, #107 ) ;
#65 = EDGE_LOOP ( 'NONE', ( #133 ) ) ;
#66 = VERTEX_POINT ( 'NONE', #39 ) ;
#67 = ORIENTED_EDGE ( 'NONE', *, *, #48, .F. ) ;
#68 = PRODUCT_DEFINITION_FORMATION_WITH_SPECIFIED_SOURCE ( 'ANY', '', #61, .NOT_KNOWN. ) ;
#69 = AXIS2_PLACEMENT_3D ( 'NONE', #144, #258, #256 ) ;
#70 =( GEOMETRIC_REPRESENTATION_CONTEXT ( 3 ) GLOBAL_UNCERTAINTY_ASSIGNED_CONTEXT ( ( #139 ) ) GLOBAL_UNIT_ASSIGNED_CONTEXT ( ( #181, #221, #177 ) ) REPRESENTATION_CONTEXT ( 'NONE', 'WORKASPACE' ) );
#71 = FILL_AREA_STYLE_COLOUR ( '', #253 ) ;
#72 = DIRECTION ( 'NONE',  ( 0.000000000000000000, 0.000000000000000000, -1.000000000000000000 ) ) ;
#73 = DIRECTION ( 'NONE',  ( -1.000000000000000000, -0.000000000000000000, -0.000000000000000000 ) ) ;
#74 = PLANE ( 'NONE',  #284 ) ;
#75 = AXIS2_PLACEMENT_3D ( 'NONE', #198, #290, #266 ) ;
#76 = ORIENTED_EDGE ( 'NONE', *, *, #114, .F. ) ;
#77 = ORIENTED_EDGE ( 'NONE', *, *, #85, .T. ) ;
#78 =( LENGTH_UNIT ( ) NAMED_UNIT ( * ) SI_UNIT ( .MILLI., .METRE. ) );
#79 = CARTESIAN_POINT ( 'NONE',  ( -14.84999999999999787, 0.000000000000000000, 0.000000000000000000 ) ) ;
#80 = EDGE_CURVE ( 'NONE', #185, #185, #246, .T. ) ;
#81 = FILL_AREA_STYLE_COLOUR ( '', #263 ) ;
#82 = CIRCLE ( 'NONE', #16, 6.422649730810366719 ) ;
#83 = DIRECTION ( 'NONE',  ( 0.000000000000000000, 0.000000000000000000, 1.000000000000000000 ) ) ;
#84 = PRODUCT_RELATED_PRODUCT_CATEGORY ( 'part', '', ( #61 ) ) ;
#85 = EDGE_CURVE ( 'NONE', #237, #237, #153, .T. ) ;
#86 = CIRCLE ( 'NONE', #69, 6.999999999999997335 ) ;
#87 = EDGE_LOOP ( 'NONE', ( #205 ) ) ;
#88 = FILL_AREA_STYLE ('',( #81 ) ) ;
#89 = ORIENTED_EDGE ( 'NONE', *, *, #157, .T. ) ;
#90 = CARTESIAN_POINT ( 'NONE',  ( -17.50000000000000000, 6.422649730810366719, 0.000000000000000000 ) ) ;
#91 = EDGE_LOOP ( 'NONE', ( #204 ) ) ;
#92 = EDGE_CURVE ( 'NONE', #99, #99, #159, .T. ) ;
#93 = ORIENTED_EDGE ( 'NONE', *, *, #230, .F. ) ;
#94 = FACE_OUTER_BOUND ( 'NONE', #220, .T. ) ;
#95 = CONICAL_SURFACE ( 'NONE', #225, 6.422649730810366719, 0.5235987755983040337 ) ;
#96 = CARTESIAN_POINT ( 'NONE',  ( -13.74999999999999822, 0.000000000000000000, 0.000000000000000000 ) ) ;
#97 = FACE_OUTER_BOUND ( 'NONE', #109, .T. ) ;
#98 = DIRECTION ( 'NONE',  ( -1.000000000000000000, -0.000000000000000000, -0.000000000000000000 ) ) ;
#99 = VERTEX_POINT ( 'NONE', #234 ) ;
#100 = FACE_OUTER_BOUND ( 'NONE', #217, .T. ) ;
#101 = CONICAL_SURFACE ( 'NONE', #60, 6.999999999999995559, 0.5235987755983008141 ) ;
#102 = ORIENTED_EDGE ( 'NONE', *, *, #59, .T. ) ;
#103 = CARTESIAN_POINT ( 'NONE',  ( -17.50000000000000000, 0.000000000000000000, 0.000000000000000000 ) ) ;
#104 = FACE_OUTER_BOUND ( 'NONE', #52, .T. ) ;
#105 = DIRECTION ( 'NONE',  ( 0.000000000000000000, 0.000000000000000000, -1.000000000000000000 ) ) ;
#106 = DIRECTION ( 'NONE',  ( -1.000000000000000000, -0.000000000000000000, -0.000000000000000000 ) ) ;
#107 = DIRECTION ( 'NONE',  ( 0.000000000000000000, 0.000000000000000000, -1.000000000000000000 ) ) ;
#108 = AXIS2_PLACEMENT_3D ( 'NONE', #121, #214, #4 ) ;
#109 = EDGE_LOOP ( 'NONE', ( #176 ) ) ;
#110 = ADVANCED_FACE ( 'NONE', ( #282, #280 ), #74, .F. ) ;
#111 = CARTESIAN_POINT ( 'NONE',  ( 17.50000000000000000, 0.000000000000000000, 0.000000000000000000 ) ) ;
#112 = EDGE_CURVE ( 'NONE', #251, #251, #199, .T. ) ;
#113 = VERTEX_POINT ( 'NONE', #183 ) ;
#114 = EDGE_CURVE ( 'NONE', #122, #122, #289, .T. ) ;
#115 = CYLINDRICAL_SURFACE ( 'NONE', #203, 6.699999999999997513 ) ;
#116 = EDGE_LOOP ( 'NONE', ( #146 ) ) ;
#117 = DIRECTION ( 'NONE',  ( -0.000000000000000000, 0.000000000000000000, 1.000000000000000000 ) ) ;
#118 = DIRECTION ( 'NONE',  ( -1.000000000000000000, 0.000000000000000000, -0.000000000000000000 ) ) ;
#119 = DIRECTION ( 'NONE',  ( 0.000000000000000000, 0.000000000000000000, -1.000000000000000000 ) ) ;
#120 = CIRCLE ( 'NONE', #75, 6.999999999999995559 ) ;
#121 = CARTESIAN_POINT ( 'NONE',  ( 13.74999999999999822, 0.000000000000000000, 0.000000000000000000 ) ) ;
#122 = VERTEX_POINT ( 'NONE', #208 ) ;
#123 = DIRECTION ( 'NONE',  ( 0.000000000000000000, 0.000000000000000000, 1.000000000000000000 ) ) ;
#124 = DIRECTION ( 'NONE',  ( -1.000000000000000000, -0.000000000000000000, -0.000000000000000000 ) ) ;
#125 =( GEOMETRIC_REPRESENTATION_CONTEXT ( 3 ) GLOBAL_UNCERTAINTY_ASSIGNED_CONTEXT ( ( #131 ) ) GLOBAL_UNIT_ASSIGNED_CONTEXT ( ( #298, #161, #279 ) ) REPRESENTATION_CONTEXT ( 'NONE', 'WORKASPACE' ) );
#126 = DIRECTION ( 'NONE',  ( -1.000000000000000000, -0.000000000000000000, -0.000000000000000000 ) ) ;
#127 = DIRECTION ( 'NONE',  ( 1.000000000000000000, 0.000000000000000000, 0.000000000000000000 ) ) ;
#128 =( NAMED_UNIT ( * ) PLANE_ANGLE_UNIT ( ) SI_UNIT ( $, .RADIAN. ) );
#129 = CARTESIAN_POINT ( 'NONE',  ( -17.50000000000000000, 0.000000000000000000, 0.000000000000000000 ) ) ;
#130 = DIRECTION ( 'NONE',  ( 1.000000000000000000, 0.000000000000000000, 0.000000000000000000 ) ) ;
#131 = UNCERTAINTY_MEASURE_WITH_UNIT (LENGTH_MEASURE( 1.000000000000000082E-05 ), #298, 'distance_accuracy_value', 'NONE');
#132 = MECHANICAL_DESIGN_GEOMETRIC_PRESENTATION_REPRESENTATION (  '', ( #293 ), #179 ) ;
#133 = ORIENTED_EDGE ( 'NONE', *, *, #80, .T. ) ;
#134 = FACE_OUTER_BOUND ( 'NONE', #160, .T. ) ;
#135 = PRODUCT_DEFINITION ( 'UNKNOWN', '', #68, #149 ) ;
#136 = VERTEX_POINT ( 'NONE', #143 ) ;
#137 = AXIS2_PLACEMENT_3D ( 'NONE', #79, #98, #169 ) ;
#138 = AXIS2_PLACEMENT_3D ( 'NONE', #11, #269, #10 ) ;
#139 = UNCERTAINTY_MEASURE_WITH_UNIT (LENGTH_MEASURE( 1.000000000000000082E-05 ), #181, 'distance_accuracy_value', 'NONE');
#140 = CARTESIAN_POINT ( 'NONE',  ( 16.50000000000000000, 0.000000000000000000, 7.000000000000000000 ) ) ;
#141 = CARTESIAN_POINT ( 'NONE',  ( 14.85000000000000142, 0.000000000000000000, 6.700000000000001066 ) ) ;
#142 = CARTESIAN_POINT ( 'NONE',  ( -13.74999999999999822, 6.999999999999997335, 0.000000000000000000 ) ) ;
#143 = CARTESIAN_POINT ( 'NONE',  ( -14.84999999999999787, 0.000000000000000000, 6.999999999999995559 ) ) ;
#144 = CARTESIAN_POINT ( 'NONE',  ( -13.74999999999999822, 0.000000000000000000, 0.000000000000000000 ) ) ;
#145 = PRESENTATION_STYLE_ASSIGNMENT (( #51 ) ) ;
#146 = ORIENTED_EDGE ( 'NONE', *, *, #209, .T. ) ;
#147 = ADVANCED_FACE ( 'NONE', ( #100, #261 ), #271, .T. ) ;
#148 = EDGE_LOOP ( 'NONE', ( #77 ) ) ;
#149 = PRODUCT_DEFINITION_CONTEXT ( 'detailed design', #297, 'design' ) ;
#150 = DIRECTION ( 'NONE',  ( 0.000000000000000000, 0.000000000000000000, 1.000000000000000000 ) ) ;
#151 = FACE_OUTER_BOUND ( 'NONE', #252, .T. ) ;
#152 = FACE_OUTER_BOUND ( 'NONE', #37, .T. ) ;
#153 = CIRCLE ( 'NONE', #267, 6.700000000000001066 ) ;
#154 = DIRECTION ( 'NONE',  ( -1.000000000000000000, -0.000000000000000000, -0.000000000000000000 ) ) ;
#155 = AXIS2_PLACEMENT_3D ( 'NONE', #111, #154, #150 ) ;
#156 = EDGE_LOOP ( 'NONE', ( #93 ) ) ;
#157 = EDGE_CURVE ( 'NONE', #41, #41, #82, .T. ) ;
#158 = DIRECTION ( 'NONE',  ( 1.000000000000000000, 0.000000000000000000, 0.000000000000000000 ) ) ;
#159 = CIRCLE ( 'NONE', #242, 6.699999999999996625 ) ;
#160 = EDGE_LOOP ( 'NONE', ( #239 ) ) ;
#161 =( NAMED_UNIT ( * ) PLANE_ANGLE_UNIT ( ) SI_UNIT ( $, .RADIAN. ) );
#162 = FILL_AREA_STYLE ('',( #71 ) ) ;
#163 = DIRECTION ( 'NONE',  ( 0.000000000000000000, 0.000000000000000000, 1.000000000000000000 ) ) ;
#164 = CARTESIAN_POINT ( 'NONE',  ( -16.50000000000000000, 0.000000000000000000, 0.000000000000000000 ) ) ;
#165 = DIRECTION ( 'NONE',  ( 1.000000000000000000, 0.000000000000000000, 0.000000000000000000 ) ) ;
#166 = DIRECTION ( 'NONE',  ( -1.000000000000000000, -0.000000000000000000, -0.000000000000000000 ) ) ;
#167 = ADVANCED_FACE ( 'NONE', ( #151, #264 ), #95, .T. ) ;
#168 = MANIFOLD_SOLID_BREP ( 'Revolve1', #56 ) ;
#169 = DIRECTION ( 'NONE',  ( 0.000000000000000000, 0.000000000000000000, 1.000000000000000000 ) ) ;
#170 = ORIENTED_EDGE ( 'NONE', *, *, #114, .T. ) ;
#171 = CARTESIAN_POINT ( 'NONE',  ( -17.50000000000000000, 0.000000000000000000, 0.000000000000000000 ) ) ;
#172 = DIRECTION ( 'NONE',  ( 1.000000000000000000, 0.000000000000000000, 0.000000000000000000 ) ) ;
#173 = FACE_OUTER_BOUND ( 'NONE', #192, .T. ) ;
#174 = AXIS2_PLACEMENT_3D ( 'NONE', #281, #275, #213 ) ;
#175 = ADVANCED_FACE ( 'NONE', ( #250, #173 ), #38, .T. ) ;
#176 = ORIENTED_EDGE ( 'NONE', *, *, #44, .T. ) ;
#177 =( NAMED_UNIT ( * ) SI_UNIT ( $, .STERADIAN. ) SOLID_ANGLE_UNIT ( ) );
#178 = PRODUCT_DEFINITION_SHAPE ( 'NONE', 'NONE',  #135 ) ;
#179 =( GEOMETRIC_REPRESENTATION_CONTEXT ( 3 ) GLOBAL_UNCERTAINTY_ASSIGNED_CONTEXT ( ( #188 ) ) GLOBAL_UNIT_ASSIGNED_CONTEXT ( ( #78, #128, #55 ) ) REPRESENTATION_CONTEXT ( 'NONE', 'WORKASPACE' ) );
#180 = EDGE_LOOP ( 'NONE', ( #102 ) ) ;
#181 =( LENGTH_UNIT ( ) NAMED_UNIT ( * ) SI_UNIT ( .MILLI., .METRE. ) );
#182 = CIRCLE ( 'NONE', #49, 6.999999999999995559 ) ;
#183 = CARTESIAN_POINT ( 'NONE',  ( -13.74999999999999822, 0.000000000000000000, 6.999999999999997335 ) ) ;
#184 = ORIENTED_EDGE ( 'NONE', *, *, #233, .F. ) ;
#185 = VERTEX_POINT ( 'NONE', #3 ) ;
#186 = CIRCLE ( 'NONE', #26, 6.999999999999999112 ) ;
#187 = CARTESIAN_POINT ( 'NONE',  ( -17.50000000000000000, 0.000000000000000000, 6.422649730810366719 ) ) ;
#188 = UNCERTAINTY_MEASURE_WITH_UNIT (LENGTH_MEASURE( 1.000000000000000082E-05 ), #78, 'distance_accuracy_value', 'NONE');
#189 = DIRECTION ( 'NONE',  ( 0.000000000000000000, 0.000000000000000000, 1.000000000000000000 ) ) ;
#190 = ADVANCED_BREP_SHAPE_REPRESENTATION ( '76.04.06.0005', ( #168, #46 ), #125 ) ;
#191 = VERTEX_POINT ( 'NONE', #140 ) ;
#192 = EDGE_LOOP ( 'NONE', ( #196 ) ) ;
#193 = CARTESIAN_POINT ( 'NONE',  ( 17.50000000000000000, 0.000000000000000000, 6.422649730810366719 ) ) ;
#194 = FACE_BOUND ( 'NONE', #65, .T. ) ;
#195 = ADVANCED_FACE ( 'NONE', ( #134, #200 ), #19, .F. ) ;
#196 = ORIENTED_EDGE ( 'NONE', *, *, #48, .T. ) ;
#197 = EDGE_LOOP ( 'NONE', ( #184 ) ) ;
#198 = CARTESIAN_POINT ( 'NONE',  ( -16.50000000000000000, 0.000000000000000000, 0.000000000000000000 ) ) ;
#199 = CIRCLE ( 'NONE', #108, 7.000000000000000888 ) ;
#200 = FACE_BOUND ( 'NONE', #40, .T. ) ;
#201 = SURFACE_SIDE_STYLE ('',( #57 ) ) ;
#202 = FACE_OUTER_BOUND ( 'NONE', #283, .T. ) ;
#203 = AXIS2_PLACEMENT_3D ( 'NONE', #20, #73, #45 ) ;
#204 = ORIENTED_EDGE ( 'NONE', *, *, #230, .T. ) ;
#205 = ORIENTED_EDGE ( 'NONE', *, *, #59, .F. ) ;
#206 = PRESENTATION_LAYER_ASSIGNMENT (  '', '', ( #31 ) ) ;
#207 = CARTESIAN_POINT ( 'NONE',  ( 14.85000000000000142, 0.000000000000000000, 6.999999999999999112 ) ) ;
#208 = CARTESIAN_POINT ( 'NONE',  ( 13.74999999999999822, 0.000000000000000000, 6.700000000000000178 ) ) ;
#209 = EDGE_CURVE ( 'NONE', #215, #215, #34, .T. ) ;
#210 = FACE_OUTER_BOUND ( 'NONE', #156, .T. ) ;
#211 = DIRECTION ( 'NONE',  ( -1.000000000000000000, -0.000000000000000000, -0.000000000000000000 ) ) ;
#212 = AXIS2_PLACEMENT_3D ( 'NONE', #2, #28, #123 ) ;
#213 = DIRECTION ( 'NONE',  ( 0.000000000000000000, 0.000000000000000000, 1.000000000000000000 ) ) ;
#214 = DIRECTION ( 'NONE',  ( -1.000000000000000000, -0.000000000000000000, -0.000000000000000000 ) ) ;
#215 = VERTEX_POINT ( 'NONE', #193 ) ;
#216 = ADVANCED_FACE ( 'NONE', ( #104 ), #295, .F. ) ;
#217 = EDGE_LOOP ( 'NONE', ( #76 ) ) ;
#218 = ORIENTED_EDGE ( 'NONE', *, *, #44, .F. ) ;
#219 = SHAPE_DEFINITION_REPRESENTATION ( #178, #190 ) ;
#220 = EDGE_LOOP ( 'NONE', ( #300 ) ) ;
#221 =( NAMED_UNIT ( * ) PLANE_ANGLE_UNIT ( ) SI_UNIT ( $, .RADIAN. ) );
#222 = DIRECTION ( 'NONE',  ( 0.000000000000000000, 0.000000000000000000, 1.000000000000000000 ) ) ;
#223 = CIRCLE ( 'NONE', #241, 7.000000000000000000 ) ;
#224 = DIRECTION ( 'NONE',  ( 0.000000000000000000, 0.000000000000000000, 1.000000000000000000 ) ) ;
#225 = AXIS2_PLACEMENT_3D ( 'NONE', #288, #106, #222 ) ;
#226 = EDGE_LOOP ( 'NONE', ( #274 ) ) ;
#227 = SURFACE_STYLE_USAGE ( .BOTH. , #201 ) ;
#228 = VERTEX_POINT ( 'NONE', #207 ) ;
#229 = APPLICATION_PROTOCOL_DEFINITION ( 'draft international standard', 'automotive_design', 1998, #277 ) ;
#230 = EDGE_CURVE ( 'NONE', #66, #66, #120, .T. ) ;
#231 = APPLICATION_PROTOCOL_DEFINITION ( 'draft international standard', 'automotive_design', 1998, #297 ) ;
#232 = CARTESIAN_POINT ( 'NONE',  ( -14.84999999999999787, 0.000000000000000000, 0.000000000000000000 ) ) ;
#233 = EDGE_CURVE ( 'NONE', #228, #228, #186, .T. ) ;
#234 = CARTESIAN_POINT ( 'NONE',  ( -13.74999999999999822, 0.000000000000000000, 6.699999999999996625 ) ) ;
#235 = ORIENTED_EDGE ( 'NONE', *, *, #92, .F. ) ;
#236 = MECHANICAL_DESIGN_GEOMETRIC_PRESENTATION_REPRESENTATION (  '', ( #31 ), #70 ) ;
#237 = VERTEX_POINT ( 'NONE', #141 ) ;
#238 = DIRECTION ( 'NONE',  ( 0.000000000000000000, 0.000000000000000000, 1.000000000000000000 ) ) ;
#239 = ORIENTED_EDGE ( 'NONE', *, *, #112, .F. ) ;
#240 = FACE_OUTER_BOUND ( 'NONE', #87, .T. ) ;
#241 = AXIS2_PLACEMENT_3D ( 'NONE', #286, #124, #163 ) ;
#242 = AXIS2_PLACEMENT_3D ( 'NONE', #96, #43, #189 ) ;
#243 = DIRECTION ( 'NONE',  ( -1.000000000000000000, -0.000000000000000000, -0.000000000000000000 ) ) ;
#244 = PLANE ( 'NONE',  #64 ) ;
#245 = ADVANCED_FACE ( 'NONE', ( #58, #152 ), #244, .F. ) ;
#246 = CIRCLE ( 'NONE', #137, 6.699999999999997513 ) ;
#247 = AXIS2_PLACEMENT_3D ( 'NONE', #22, #1, #117 ) ;
#248 = CARTESIAN_POINT ( 'NONE',  ( 14.85000000000000142, 0.000000000000000000, 0.000000000000000000 ) ) ;
#249 = ADVANCED_FACE ( 'NONE', ( #202 ), #292, .F. ) ;
#250 = FACE_OUTER_BOUND ( 'NONE', #197, .T. ) ;
#251 = VERTEX_POINT ( 'NONE', #27 ) ;
#252 = EDGE_LOOP ( 'NONE', ( #67 ) ) ;
#253 = COLOUR_RGB ( '',0.8274509803921568096, 0.8392156862745098200, 0.8274509803921568096 ) ;
#254 = PRODUCT_CONTEXT ( 'NONE', #277, 'mechanical' ) ;
#255 = FACE_BOUND ( 'NONE', #30, .T. ) ;
#256 = DIRECTION ( 'NONE',  ( 0.000000000000000000, 0.000000000000000000, 1.000000000000000000 ) ) ;
#257 = FACE_OUTER_BOUND ( 'NONE', #226, .T. ) ;
#258 = DIRECTION ( 'NONE',  ( -1.000000000000000000, -0.000000000000000000, -0.000000000000000000 ) ) ;
#259 = CARTESIAN_POINT ( 'NONE',  ( 0.000000000000000000, 0.000000000000000000, 0.000000000000000000 ) ) ;
#260 = DIRECTION ( 'NONE',  ( 0.000000000000000000, 0.000000000000000000, 1.000000000000000000 ) ) ;
#261 = FACE_OUTER_BOUND ( 'NONE', #148, .T. ) ;
#262 = EDGE_LOOP ( 'NONE', ( #18 ) ) ;
#263 = COLOUR_RGB ( '',0.8274509803921568096, 0.8392156862745098200, 0.8274509803921568096 ) ;
#264 = FACE_BOUND ( 'NONE', #116, .T. ) ;
#265 = AXIS2_PLACEMENT_3D ( 'NONE', #103, #166, #260 ) ;
#266 = DIRECTION ( 'NONE',  ( 0.000000000000000000, 0.000000000000000000, 1.000000000000000000 ) ) ;
#267 = AXIS2_PLACEMENT_3D ( 'NONE', #6, #211, #238 ) ;
#268 = ADVANCED_FACE ( 'NONE', ( #94, #257 ), #115, .T. ) ;
#269 = DIRECTION ( 'NONE',  ( -1.000000000000000000, -0.000000000000000000, -0.000000000000000000 ) ) ;
#270 = EDGE_LOOP ( 'NONE', ( #23 ) ) ;
#271 = CYLINDRICAL_SURFACE ( 'NONE', #36, 6.700000000000001066 ) ;
#272 = ORIENTED_EDGE ( 'NONE', *, *, #157, .F. ) ;
#273 = DIRECTION ( 'NONE',  ( -1.000000000000000000, 0.000000000000000000, -0.000000000000000000 ) ) ;
#274 = ORIENTED_EDGE ( 'NONE', *, *, #92, .T. ) ;
#275 = DIRECTION ( 'NONE',  ( -1.000000000000000000, -0.000000000000000000, -0.000000000000000000 ) ) ;
#276 = ORIENTED_EDGE ( 'NONE', *, *, #233, .T. ) ;
#277 = APPLICATION_CONTEXT ( 'automotive_design' ) ;
#278 = AXIS2_PLACEMENT_3D ( 'NONE', #90, #127, #105 ) ;
#279 =( NAMED_UNIT ( * ) SI_UNIT ( $, .STERADIAN. ) SOLID_ANGLE_UNIT ( ) );
#280 = FACE_OUTER_BOUND ( 'NONE', #180, .T. ) ;
#281 = CARTESIAN_POINT ( 'NONE',  ( -17.50000000000000000, 0.000000000000000000, 0.000000000000000000 ) ) ;
#282 = FACE_BOUND ( 'NONE', #21, .T. ) ;
#283 = EDGE_LOOP ( 'NONE', ( #62 ) ) ;
#284 = AXIS2_PLACEMENT_3D ( 'NONE', #142, #165, #72 ) ;
#285 = DIRECTION ( 'NONE',  ( 0.000000000000000000, 0.000000000000000000, 1.000000000000000000 ) ) ;
#286 = CARTESIAN_POINT ( 'NONE',  ( 16.50000000000000000, 0.000000000000000000, 0.000000000000000000 ) ) ;
#287 = CARTESIAN_POINT ( 'NONE',  ( -14.84999999999999787, 6.699999999999997513, 0.000000000000000000 ) ) ;
#288 = CARTESIAN_POINT ( 'NONE',  ( 17.50000000000000000, 0.000000000000000000, 0.000000000000000000 ) ) ;
#289 = CIRCLE ( 'NONE', #212, 6.700000000000000178 ) ;
#290 = DIRECTION ( 'NONE',  ( -1.000000000000000000, -0.000000000000000000, -0.000000000000000000 ) ) ;
#291 = PRESENTATION_STYLE_ASSIGNMENT (( #227 ) ) ;
#292 = PLANE ( 'NONE',  #247 ) ;
#293 = STYLED_ITEM ( 'NONE', ( #145 ), #190 ) ;
#294 = ADVANCED_FACE ( 'NONE', ( #255, #24 ), #101, .T. ) ;
#295 = PLANE ( 'NONE',  #278 ) ;
#296 = ADVANCED_FACE ( 'NONE', ( #210, #97 ), #299, .T. ) ;
#297 = APPLICATION_CONTEXT ( 'automotive_design' ) ;
#298 =( LENGTH_UNIT ( ) NAMED_UNIT ( * ) SI_UNIT ( .MILLI., .METRE. ) );
#299 = CYLINDRICAL_SURFACE ( 'NONE', #174, 6.999999999999995559 ) ;
#300 = ORIENTED_EDGE ( 'NONE', *, *, #80, .F. ) ;
ENDSEC;
END-ISO-10303-21;
