ISO-10303-21;
HEADER;
FILE_DESCRIPTION (( 'STEP AP214' ),
    '1' );
FILE_NAME ('76.04.06.0004.step',
    '2021-04-02T18:04:26',
    ( '' ),
    ( '' ),
    'SwSTEP 2.0',
    'SolidWorks 2021',
    '' );
FILE_SCHEMA (( 'AUTOMOTIVE_DESIGN' ));
ENDSEC;

DATA;
#1 = VERTEX_POINT ( 'NONE', #233 ) ;
#2 = PLANE ( 'NONE',  #79 ) ;
#3 = CARTESIAN_POINT ( 'NONE',  ( -13.35000000000000142, 0.000000000000000000, 0.000000000000000000 ) ) ;
#4 = CARTESIAN_POINT ( 'NONE',  ( -15.00000000000000000, 5.422649730810368496, 0.000000000000000000 ) ) ;
#5 = CIRCLE ( 'NONE', #19, 6.000000000000000888 ) ;
#6 = FACE_OUTER_BOUND ( 'NONE', #18, .T. ) ;
#7 =( NAMED_UNIT ( * ) PLANE_ANGLE_UNIT ( ) SI_UNIT ( $, .RADIAN. ) );
#8 = SURFACE_SIDE_STYLE ('',( #32 ) ) ;
#9 = FACE_OUTER_BOUND ( 'NONE', #39, .T. ) ;
#10 = CIRCLE ( 'NONE', #186, 6.000000000000001776 ) ;
#11 = ADVANCED_FACE ( 'NONE', ( #63, #100 ), #25, .T. ) ;
#12 = COLOUR_RGB ( '',0.8274509803921568096, 0.8392156862745098200, 0.8274509803921568096 ) ;
#13 = ORIENTED_EDGE ( 'NONE', *, *, #81, .F. ) ;
#14 = PRODUCT_DEFINITION ( 'UNKNOWN', '', #216, #126 ) ;
#15 = EDGE_LOOP ( 'NONE', ( #229 ) ) ;
#16 = EDGE_LOOP ( 'NONE', ( #208 ) ) ;
#17 = FACE_OUTER_BOUND ( 'NONE', #134, .T. ) ;
#18 = EDGE_LOOP ( 'NONE', ( #92 ) ) ;
#19 = AXIS2_PLACEMENT_3D ( 'NONE', #178, #272, #57 ) ;
#20 = EDGE_LOOP ( 'NONE', ( #280 ) ) ;
#21 = FILL_AREA_STYLE ('',( #141 ) ) ;
#22 = EDGE_LOOP ( 'NONE', ( #210 ) ) ;
#23 = DIRECTION ( 'NONE',  ( -1.000000000000000000, -0.000000000000000000, -0.000000000000000000 ) ) ;
#24 =( NAMED_UNIT ( * ) SI_UNIT ( $, .STERADIAN. ) SOLID_ANGLE_UNIT ( ) );
#25 = CYLINDRICAL_SURFACE ( 'NONE', #129, 5.750000000000000000 ) ;
#26 = CLOSED_SHELL ( 'NONE', ( #158, #251, #294, #27, #11, #218, #67, #271, #237, #172, #214, #199, #83 ) ) ;
#27 = ADVANCED_FACE ( 'NONE', ( #173, #71 ), #148, .F. ) ;
#28 = DIRECTION ( 'NONE',  ( 0.000000000000000000, 0.000000000000000000, 1.000000000000000000 ) ) ;
#29 = FACE_OUTER_BOUND ( 'NONE', #276, .T. ) ;
#30 = DIRECTION ( 'NONE',  ( 0.000000000000000000, 0.000000000000000000, 1.000000000000000000 ) ) ;
#31 = AXIS2_PLACEMENT_3D ( 'NONE', #123, #106, #154 ) ;
#32 = SURFACE_STYLE_FILL_AREA ( #202 ) ;
#33 = DIRECTION ( 'NONE',  ( -1.000000000000000000, -0.000000000000000000, -0.000000000000000000 ) ) ;
#34 = FACE_OUTER_BOUND ( 'NONE', #274, .T. ) ;
#35 = AXIS2_PLACEMENT_3D ( 'NONE', #223, #143, #300 ) ;
#36 = VERTEX_POINT ( 'NONE', #236 ) ;
#37 = CIRCLE ( 'NONE', #149, 5.422649730810368496 ) ;
#38 = COLOUR_RGB ( '',0.8274509803921568096, 0.8392156862745098200, 0.8274509803921568096 ) ;
#39 = EDGE_LOOP ( 'NONE', ( #107 ) ) ;
#40 = ORIENTED_EDGE ( 'NONE', *, *, #180, .T. ) ;
#41 = DIRECTION ( 'NONE',  ( -1.000000000000000000, -0.000000000000000000, -0.000000000000000000 ) ) ;
#42 = EDGE_LOOP ( 'NONE', ( #256 ) ) ;
#43 = ORIENTED_EDGE ( 'NONE', *, *, #50, .F. ) ;
#44 = CARTESIAN_POINT ( 'NONE',  ( 15.00000000000000000, 0.000000000000000000, 5.422649730810368496 ) ) ;
#45 =( GEOMETRIC_REPRESENTATION_CONTEXT ( 3 ) GLOBAL_UNCERTAINTY_ASSIGNED_CONTEXT ( ( #193 ) ) GLOBAL_UNIT_ASSIGNED_CONTEXT ( ( #176, #7, #127 ) ) REPRESENTATION_CONTEXT ( 'NONE', 'WORKASPACE' ) );
#46 = EDGE_CURVE ( 'NONE', #36, #36, #268, .T. ) ;
#47 = DIRECTION ( 'NONE',  ( -1.000000000000000000, -0.000000000000000000, -0.000000000000000000 ) ) ;
#48 = EDGE_CURVE ( 'NONE', #192, #192, #10, .T. ) ;
#49 = DIRECTION ( 'NONE',  ( 1.000000000000000000, 0.000000000000000000, 0.000000000000000000 ) ) ;
#50 = EDGE_CURVE ( 'NONE', #99, #99, #51, .T. ) ;
#51 = CIRCLE ( 'NONE', #227, 5.749999999999999112 ) ;
#52 = CARTESIAN_POINT ( 'NONE',  ( -15.00000000000000000, 0.000000000000000000, 0.000000000000000000 ) ) ;
#53 = CARTESIAN_POINT ( 'NONE',  ( 13.35000000000000142, 0.000000000000000000, 0.000000000000000000 ) ) ;
#54 = PLANE ( 'NONE',  #58 ) ;
#55 = CARTESIAN_POINT ( 'NONE',  ( -12.25000000000000000, 0.000000000000000000, 0.000000000000000000 ) ) ;
#56 = FACE_OUTER_BOUND ( 'NONE', #20, .T. ) ;
#57 = DIRECTION ( 'NONE',  ( 0.000000000000000000, 0.000000000000000000, 1.000000000000000000 ) ) ;
#58 = AXIS2_PLACEMENT_3D ( 'NONE', #283, #96, #285 ) ;
#59 = ORIENTED_EDGE ( 'NONE', *, *, #296, .T. ) ;
#60 = PLANE ( 'NONE',  #117 ) ;
#61 = AXIS2_PLACEMENT_3D ( 'NONE', #104, #33, #78 ) ;
#62 = EDGE_LOOP ( 'NONE', ( #131 ) ) ;
#63 = FACE_OUTER_BOUND ( 'NONE', #156, .T. ) ;
#64 =( NAMED_UNIT ( * ) PLANE_ANGLE_UNIT ( ) SI_UNIT ( $, .RADIAN. ) );
#65 = EDGE_LOOP ( 'NONE', ( #140 ) ) ;
#66 = DIRECTION ( 'NONE',  ( 0.000000000000000000, 0.000000000000000000, 1.000000000000000000 ) ) ;
#67 = ADVANCED_FACE ( 'NONE', ( #171, #29 ), #264, .T. ) ;
#68 = AXIS2_PLACEMENT_3D ( 'NONE', #4, #144, #266 ) ;
#69 = EDGE_LOOP ( 'NONE', ( #232 ) ) ;
#70 =( NAMED_UNIT ( * ) PLANE_ANGLE_UNIT ( ) SI_UNIT ( $, .RADIAN. ) );
#71 = FACE_OUTER_BOUND ( 'NONE', #110, .T. ) ;
#72 = VERTEX_POINT ( 'NONE', #243 ) ;
#73 = DIRECTION ( 'NONE',  ( -0.000000000000000000, 0.000000000000000000, 1.000000000000000000 ) ) ;
#74 = CIRCLE ( 'NONE', #242, 5.749999999999996447 ) ;
#75 = DIRECTION ( 'NONE',  ( 1.000000000000000000, 0.000000000000000000, 0.000000000000000000 ) ) ;
#76 = CARTESIAN_POINT ( 'NONE',  ( 12.25000000000000000, 0.000000000000000000, 0.000000000000000000 ) ) ;
#77 = CARTESIAN_POINT ( 'NONE',  ( -15.00000000000000000, 0.000000000000000000, 0.000000000000000000 ) ) ;
#78 = DIRECTION ( 'NONE',  ( 0.000000000000000000, 0.000000000000000000, 1.000000000000000000 ) ) ;
#79 = AXIS2_PLACEMENT_3D ( 'NONE', #103, #289, #73 ) ;
#80 = CARTESIAN_POINT ( 'NONE',  ( -12.25000000000000000, 0.000000000000000000, 0.000000000000000000 ) ) ;
#81 = EDGE_CURVE ( 'NONE', #166, #166, #137, .T. ) ;
#82 = DIRECTION ( 'NONE',  ( 0.000000000000000000, 0.000000000000000000, 1.000000000000000000 ) ) ;
#83 = ADVANCED_FACE ( 'NONE', ( #120 ), #221, .F. ) ;
#84 = AXIS2_PLACEMENT_3D ( 'NONE', #146, #116, #246 ) ;
#85 = EDGE_LOOP ( 'NONE', ( #40 ) ) ;
#86 = DIRECTION ( 'NONE',  ( -1.000000000000000000, 0.000000000000000000, -0.000000000000000000 ) ) ;
#87 = EDGE_LOOP ( 'NONE', ( #88 ) ) ;
#88 = ORIENTED_EDGE ( 'NONE', *, *, #133, .F. ) ;
#89 = SURFACE_STYLE_USAGE ( .BOTH. , #8 ) ;
#90 = ORIENTED_EDGE ( 'NONE', *, *, #180, .F. ) ;
#91 = VERTEX_POINT ( 'NONE', #142 ) ;
#92 = ORIENTED_EDGE ( 'NONE', *, *, #108, .F. ) ;
#93 = CARTESIAN_POINT ( 'NONE',  ( 12.25000000000000000, 0.000000000000000000, 5.749999999999999112 ) ) ;
#94 = SURFACE_SIDE_STYLE ('',( #135 ) ) ;
#95 =( GEOMETRIC_REPRESENTATION_CONTEXT ( 3 ) GLOBAL_UNCERTAINTY_ASSIGNED_CONTEXT ( ( #220 ) ) GLOBAL_UNIT_ASSIGNED_CONTEXT ( ( #196, #64, #24 ) ) REPRESENTATION_CONTEXT ( 'NONE', 'WORKASPACE' ) );
#96 = DIRECTION ( 'NONE',  ( -1.000000000000000000, 0.000000000000000000, -0.000000000000000000 ) ) ;
#97 = VERTEX_POINT ( 'NONE', #259 ) ;
#98 = FACE_OUTER_BOUND ( 'NONE', #234, .T. ) ;
#99 = VERTEX_POINT ( 'NONE', #93 ) ;
#100 = FACE_OUTER_BOUND ( 'NONE', #181, .T. ) ;
#101 = PRESENTATION_LAYER_ASSIGNMENT (  '', '', ( #235 ) ) ;
#102 = DIRECTION ( 'NONE',  ( 0.000000000000000000, 0.000000000000000000, 1.000000000000000000 ) ) ;
#103 = CARTESIAN_POINT ( 'NONE',  ( 15.00000000000000000, 0.000000000000000000, 0.000000000000000000 ) ) ;
#104 = CARTESIAN_POINT ( 'NONE',  ( 15.00000000000000000, 0.000000000000000000, 0.000000000000000000 ) ) ;
#105 = PRODUCT_DEFINITION_SHAPE ( 'NONE', 'NONE',  #14 ) ;
#106 = DIRECTION ( 'NONE',  ( -1.000000000000000000, -0.000000000000000000, -0.000000000000000000 ) ) ;
#107 = ORIENTED_EDGE ( 'NONE', *, *, #277, .T. ) ;
#108 = EDGE_CURVE ( 'NONE', #261, #261, #153, .T. ) ;
#109 = FACE_OUTER_BOUND ( 'NONE', #62, .T. ) ;
#110 = EDGE_LOOP ( 'NONE', ( #209 ) ) ;
#111 = PRODUCT_RELATED_PRODUCT_CATEGORY ( 'part', '', ( #155 ) ) ;
#112 = PRESENTATION_STYLE_ASSIGNMENT (( #187 ) ) ;
#113 = EDGE_CURVE ( 'NONE', #282, #282, #162, .T. ) ;
#114 = CARTESIAN_POINT ( 'NONE',  ( 13.99999999999999822, 0.000000000000000000, 6.000000000000001776 ) ) ;
#115 = DIRECTION ( 'NONE',  ( 1.000000000000000000, 0.000000000000000000, 0.000000000000000000 ) ) ;
#116 = DIRECTION ( 'NONE',  ( -1.000000000000000000, -0.000000000000000000, -0.000000000000000000 ) ) ;
#117 = AXIS2_PLACEMENT_3D ( 'NONE', #292, #86, #177 ) ;
#118 = DIRECTION ( 'NONE',  ( -1.000000000000000000, -0.000000000000000000, -0.000000000000000000 ) ) ;
#119 = DIRECTION ( 'NONE',  ( -1.000000000000000000, -0.000000000000000000, -0.000000000000000000 ) ) ;
#120 = FACE_OUTER_BOUND ( 'NONE', #69, .T. ) ;
#121 = PRESENTATION_LAYER_ASSIGNMENT (  '', '', ( #212 ) ) ;
#122 = DIRECTION ( 'NONE',  ( -1.000000000000000000, -0.000000000000000000, -0.000000000000000000 ) ) ;
#123 = CARTESIAN_POINT ( 'NONE',  ( -15.00000000000000000, 0.000000000000000000, 0.000000000000000000 ) ) ;
#124 = DIRECTION ( 'NONE',  ( 0.000000000000000000, 0.000000000000000000, 1.000000000000000000 ) ) ;
#125 = FACE_OUTER_BOUND ( 'NONE', #160, .T. ) ;
#126 = PRODUCT_DEFINITION_CONTEXT ( 'detailed design', #189, 'design' ) ;
#127 =( NAMED_UNIT ( * ) SI_UNIT ( $, .STERADIAN. ) SOLID_ANGLE_UNIT ( ) );
#128 = CONICAL_SURFACE ( 'NONE', #260, 5.999999999999998224, 0.5235987755983014802 ) ;
#129 = AXIS2_PLACEMENT_3D ( 'NONE', #77, #241, #201 ) ;
#130 = EDGE_LOOP ( 'NONE', ( #295 ) ) ;
#131 = ORIENTED_EDGE ( 'NONE', *, *, #46, .T. ) ;
#132 = PRESENTATION_STYLE_ASSIGNMENT (( #89 ) ) ;
#133 = EDGE_CURVE ( 'NONE', #1, #1, #37, .T. ) ;
#134 = EDGE_LOOP ( 'NONE', ( #13 ) ) ;
#135 = SURFACE_STYLE_FILL_AREA ( #21 ) ;
#136 = ORIENTED_EDGE ( 'NONE', *, *, #46, .F. ) ;
#137 = CIRCLE ( 'NONE', #84, 5.749999999999996447 ) ;
#138 = CIRCLE ( 'NONE', #254, 5.999999999999998224 ) ;
#139 = CARTESIAN_POINT ( 'NONE',  ( -12.25000000000000000, 0.000000000000000000, 5.749999999999996447 ) ) ;
#140 = ORIENTED_EDGE ( 'NONE', *, *, #50, .T. ) ;
#141 = FILL_AREA_STYLE_COLOUR ( '', #12 ) ;
#142 = CARTESIAN_POINT ( 'NONE',  ( 12.25000000000000000, 0.000000000000000000, 6.000000000000000888 ) ) ;
#143 = DIRECTION ( 'NONE',  ( -1.000000000000000000, -0.000000000000000000, -0.000000000000000000 ) ) ;
#144 = DIRECTION ( 'NONE',  ( 1.000000000000000000, 0.000000000000000000, 0.000000000000000000 ) ) ;
#145 = AXIS2_PLACEMENT_3D ( 'NONE', #3, #174, #30 ) ;
#146 = CARTESIAN_POINT ( 'NONE',  ( -13.35000000000000142, 0.000000000000000000, 0.000000000000000000 ) ) ;
#147 = EDGE_CURVE ( 'NONE', #169, #169, #222, .T. ) ;
#148 = PLANE ( 'NONE',  #244 ) ;
#149 = AXIS2_PLACEMENT_3D ( 'NONE', #219, #23, #200 ) ;
#150 = CARTESIAN_POINT ( 'NONE',  ( -12.25000000000000000, 5.999999999999998224, 0.000000000000000000 ) ) ;
#151 = DIRECTION ( 'NONE',  ( 0.000000000000000000, 0.000000000000000000, -1.000000000000000000 ) ) ;
#152 = DIRECTION ( 'NONE',  ( 0.000000000000000000, 0.000000000000000000, 1.000000000000000000 ) ) ;
#153 = CIRCLE ( 'NONE', #248, 5.422649730810368496 ) ;
#154 = DIRECTION ( 'NONE',  ( 0.000000000000000000, 0.000000000000000000, 1.000000000000000000 ) ) ;
#155 = PRODUCT ( '76.04.06.0004', '76.04.06.0004', '', ( #284 ) ) ;
#156 = EDGE_LOOP ( 'NONE', ( #43 ) ) ;
#157 = AXIS2_PLACEMENT_3D ( 'NONE', #226, #291, #82 ) ;
#158 = ADVANCED_FACE ( 'NONE', ( #6 ), #2, .F. ) ;
#159 = CYLINDRICAL_SURFACE ( 'NONE', #31, 5.749999999999996447 ) ;
#160 = EDGE_LOOP ( 'NONE', ( #230 ) ) ;
#161 = CARTESIAN_POINT ( 'NONE',  ( 13.35000000000000142, 0.000000000000000000, 6.000000000000000000 ) ) ;
#162 = CIRCLE ( 'NONE', #270, 6.000000000000000000 ) ;
#163 = ORIENTED_EDGE ( 'NONE', *, *, #113, .F. ) ;
#164 = ORIENTED_EDGE ( 'NONE', *, *, #277, .F. ) ;
#165 = CARTESIAN_POINT ( 'NONE',  ( 0.000000000000000000, 0.000000000000000000, 0.000000000000000000 ) ) ;
#166 = VERTEX_POINT ( 'NONE', #213 ) ;
#167 =( NAMED_UNIT ( * ) SI_UNIT ( $, .STERADIAN. ) SOLID_ANGLE_UNIT ( ) );
#168 = DIRECTION ( 'NONE',  ( 0.000000000000000000, 0.000000000000000000, 1.000000000000000000 ) ) ;
#169 = VERTEX_POINT ( 'NONE', #257 ) ;
#170 = CARTESIAN_POINT ( 'NONE',  ( -13.99999999999999822, 0.000000000000000000, 0.000000000000000000 ) ) ;
#171 = FACE_OUTER_BOUND ( 'NONE', #16, .T. ) ;
#172 = ADVANCED_FACE ( 'NONE', ( #98, #267 ), #54, .F. ) ;
#173 = FACE_BOUND ( 'NONE', #42, .T. ) ;
#174 = DIRECTION ( 'NONE',  ( -1.000000000000000000, -0.000000000000000000, -0.000000000000000000 ) ) ;
#175 = AXIS2_PLACEMENT_3D ( 'NONE', #165, #66, #115 ) ;
#176 =( LENGTH_UNIT ( ) NAMED_UNIT ( * ) SI_UNIT ( .MILLI., .METRE. ) );
#177 = DIRECTION ( 'NONE',  ( -0.000000000000000000, 0.000000000000000000, 1.000000000000000000 ) ) ;
#178 = CARTESIAN_POINT ( 'NONE',  ( 12.25000000000000000, 0.000000000000000000, 0.000000000000000000 ) ) ;
#179 = MECHANICAL_DESIGN_GEOMETRIC_PRESENTATION_REPRESENTATION (  '', ( #212 ), #45 ) ;
#180 = EDGE_CURVE ( 'NONE', #72, #72, #138, .T. ) ;
#181 = EDGE_LOOP ( 'NONE', ( #258 ) ) ;
#182 = FACE_OUTER_BOUND ( 'NONE', #279, .T. ) ;
#183 = EDGE_LOOP ( 'NONE', ( #164 ) ) ;
#184 = ORIENTED_EDGE ( 'NONE', *, *, #255, .T. ) ;
#185 = FACE_BOUND ( 'NONE', #22, .T. ) ;
#186 = AXIS2_PLACEMENT_3D ( 'NONE', #240, #119, #198 ) ;
#187 = SURFACE_STYLE_USAGE ( .BOTH. , #94 ) ;
#188 = ADVANCED_BREP_SHAPE_REPRESENTATION ( '76.04.06.0004', ( #238, #175 ), #281 ) ;
#189 = APPLICATION_CONTEXT ( 'automotive_design' ) ;
#190 = APPLICATION_PROTOCOL_DEFINITION ( 'draft international standard', 'automotive_design', 1998, #203 ) ;
#191 = CIRCLE ( 'NONE', #293, 5.999999999999998224 ) ;
#192 = VERTEX_POINT ( 'NONE', #114 ) ;
#193 = UNCERTAINTY_MEASURE_WITH_UNIT (LENGTH_MEASURE( 1.000000000000000082E-05 ), #176, 'distance_accuracy_value', 'NONE');
#194 = CARTESIAN_POINT ( 'NONE',  ( -13.99999999999999822, 0.000000000000000000, 0.000000000000000000 ) ) ;
#195 = DIRECTION ( 'NONE',  ( -1.000000000000000000, -0.000000000000000000, -0.000000000000000000 ) ) ;
#196 =( LENGTH_UNIT ( ) NAMED_UNIT ( * ) SI_UNIT ( .MILLI., .METRE. ) );
#197 = UNCERTAINTY_MEASURE_WITH_UNIT (LENGTH_MEASURE( 1.000000000000000082E-05 ), #263, 'distance_accuracy_value', 'NONE');
#198 = DIRECTION ( 'NONE',  ( 0.000000000000000000, 0.000000000000000000, 1.000000000000000000 ) ) ;
#199 = ADVANCED_FACE ( 'NONE', ( #217, #245 ), #128, .T. ) ;
#200 = DIRECTION ( 'NONE',  ( 0.000000000000000000, 0.000000000000000000, 1.000000000000000000 ) ) ;
#201 = DIRECTION ( 'NONE',  ( 0.000000000000000000, 0.000000000000000000, 1.000000000000000000 ) ) ;
#202 = FILL_AREA_STYLE ('',( #224 ) ) ;
#203 = APPLICATION_CONTEXT ( 'automotive_design' ) ;
#204 = AXIS2_PLACEMENT_3D ( 'NONE', #207, #41, #124 ) ;
#205 = DIRECTION ( 'NONE',  ( 0.000000000000000000, 0.000000000000000000, 1.000000000000000000 ) ) ;
#206 = CYLINDRICAL_SURFACE ( 'NONE', #157, 6.000000000000000888 ) ;
#207 = CARTESIAN_POINT ( 'NONE',  ( -15.00000000000000000, 0.000000000000000000, 0.000000000000000000 ) ) ;
#208 = ORIENTED_EDGE ( 'NONE', *, *, #255, .F. ) ;
#209 = ORIENTED_EDGE ( 'NONE', *, *, #113, .T. ) ;
#210 = ORIENTED_EDGE ( 'NONE', *, *, #108, .T. ) ;
#211 = DIRECTION ( 'NONE',  ( 0.000000000000000000, 0.000000000000000000, -1.000000000000000000 ) ) ;
#212 = STYLED_ITEM ( 'NONE', ( #132 ), #238 ) ;
#213 = CARTESIAN_POINT ( 'NONE',  ( -13.35000000000000142, 0.000000000000000000, 5.749999999999996447 ) ) ;
#214 = ADVANCED_FACE ( 'NONE', ( #182, #109 ), #231, .T. ) ;
#215 = DIRECTION ( 'NONE',  ( 0.000000000000000000, 0.000000000000000000, 1.000000000000000000 ) ) ;
#216 = PRODUCT_DEFINITION_FORMATION_WITH_SPECIFIED_SOURCE ( 'ANY', '', #155, .NOT_KNOWN. ) ;
#217 = FACE_BOUND ( 'NONE', #87, .T. ) ;
#218 = ADVANCED_FACE ( 'NONE', ( #225, #228 ), #60, .F. ) ;
#219 = CARTESIAN_POINT ( 'NONE',  ( -15.00000000000000000, 0.000000000000000000, 0.000000000000000000 ) ) ;
#220 = UNCERTAINTY_MEASURE_WITH_UNIT (LENGTH_MEASURE( 1.000000000000000082E-05 ), #196, 'distance_accuracy_value', 'NONE');
#221 = PLANE ( 'NONE',  #68 ) ;
#222 = CIRCLE ( 'NONE', #35, 5.750000000000000000 ) ;
#223 = CARTESIAN_POINT ( 'NONE',  ( 13.35000000000000142, 0.000000000000000000, 0.000000000000000000 ) ) ;
#224 = FILL_AREA_STYLE_COLOUR ( '', #38 ) ;
#225 = FACE_OUTER_BOUND ( 'NONE', #15, .T. ) ;
#226 = CARTESIAN_POINT ( 'NONE',  ( -15.00000000000000000, 0.000000000000000000, 0.000000000000000000 ) ) ;
#227 = AXIS2_PLACEMENT_3D ( 'NONE', #76, #286, #262 ) ;
#228 = FACE_BOUND ( 'NONE', #65, .T. ) ;
#229 = ORIENTED_EDGE ( 'NONE', *, *, #296, .F. ) ;
#230 = ORIENTED_EDGE ( 'NONE', *, *, #48, .T. ) ;
#231 = CYLINDRICAL_SURFACE ( 'NONE', #204, 5.999999999999997335 ) ;
#232 = ORIENTED_EDGE ( 'NONE', *, *, #133, .T. ) ;
#233 = CARTESIAN_POINT ( 'NONE',  ( -15.00000000000000000, 0.000000000000000000, 5.422649730810368496 ) ) ;
#234 = EDGE_LOOP ( 'NONE', ( #136 ) ) ;
#235 = STYLED_ITEM ( 'NONE', ( #112 ), #188 ) ;
#236 = CARTESIAN_POINT ( 'NONE',  ( -13.35000000000000142, 0.000000000000000000, 5.999999999999996447 ) ) ;
#237 = ADVANCED_FACE ( 'NONE', ( #17, #9 ), #159, .T. ) ;
#238 = MANIFOLD_SOLID_BREP ( 'Revolve1', #26 ) ;
#239 = APPLICATION_PROTOCOL_DEFINITION ( 'draft international standard', 'automotive_design', 1998, #189 ) ;
#240 = CARTESIAN_POINT ( 'NONE',  ( 13.99999999999999822, 0.000000000000000000, 0.000000000000000000 ) ) ;
#241 = DIRECTION ( 'NONE',  ( -1.000000000000000000, -0.000000000000000000, -0.000000000000000000 ) ) ;
#242 = AXIS2_PLACEMENT_3D ( 'NONE', #80, #269, #152 ) ;
#243 = CARTESIAN_POINT ( 'NONE',  ( -13.99999999999999822, 0.000000000000000000, 5.999999999999998224 ) ) ;
#244 = AXIS2_PLACEMENT_3D ( 'NONE', #247, #75, #265 ) ;
#245 = FACE_OUTER_BOUND ( 'NONE', #85, .T. ) ;
#246 = DIRECTION ( 'NONE',  ( 0.000000000000000000, 0.000000000000000000, 1.000000000000000000 ) ) ;
#247 = CARTESIAN_POINT ( 'NONE',  ( 13.35000000000000142, 6.000000000000000000, 0.000000000000000000 ) ) ;
#248 = AXIS2_PLACEMENT_3D ( 'NONE', #288, #122, #28 ) ;
#249 = DIRECTION ( 'NONE',  ( 1.000000000000000000, 0.000000000000000000, 0.000000000000000000 ) ) ;
#250 = DIRECTION ( 'NONE',  ( -1.000000000000000000, -0.000000000000000000, -0.000000000000000000 ) ) ;
#251 = ADVANCED_FACE ( 'NONE', ( #56, #185 ), #287, .T. ) ;
#252 = AXIS2_PLACEMENT_3D ( 'NONE', #52, #47, #215 ) ;
#253 = PLANE ( 'NONE',  #290 ) ;
#254 = AXIS2_PLACEMENT_3D ( 'NONE', #194, #118, #168 ) ;
#255 = EDGE_CURVE ( 'NONE', #97, #97, #191, .T. ) ;
#256 = ORIENTED_EDGE ( 'NONE', *, *, #147, .F. ) ;
#257 = CARTESIAN_POINT ( 'NONE',  ( 13.35000000000000142, 0.000000000000000000, 5.750000000000000000 ) ) ;
#258 = ORIENTED_EDGE ( 'NONE', *, *, #147, .T. ) ;
#259 = CARTESIAN_POINT ( 'NONE',  ( -12.25000000000000000, 0.000000000000000000, 5.999999999999998224 ) ) ;
#260 = AXIS2_PLACEMENT_3D ( 'NONE', #170, #49, #211 ) ;
#261 = VERTEX_POINT ( 'NONE', #44 ) ;
#262 = DIRECTION ( 'NONE',  ( 0.000000000000000000, 0.000000000000000000, 1.000000000000000000 ) ) ;
#263 =( LENGTH_UNIT ( ) NAMED_UNIT ( * ) SI_UNIT ( .MILLI., .METRE. ) );
#264 = CYLINDRICAL_SURFACE ( 'NONE', #252, 6.000000000000000000 ) ;
#265 = DIRECTION ( 'NONE',  ( 0.000000000000000000, 0.000000000000000000, -1.000000000000000000 ) ) ;
#266 = DIRECTION ( 'NONE',  ( 0.000000000000000000, 0.000000000000000000, -1.000000000000000000 ) ) ;
#267 = FACE_BOUND ( 'NONE', #130, .T. ) ;
#268 = CIRCLE ( 'NONE', #145, 5.999999999999996447 ) ;
#269 = DIRECTION ( 'NONE',  ( -1.000000000000000000, -0.000000000000000000, -0.000000000000000000 ) ) ;
#270 = AXIS2_PLACEMENT_3D ( 'NONE', #53, #195, #102 ) ;
#271 = ADVANCED_FACE ( 'NONE', ( #278, #275 ), #253, .F. ) ;
#272 = DIRECTION ( 'NONE',  ( -1.000000000000000000, -0.000000000000000000, -0.000000000000000000 ) ) ;
#273 = MECHANICAL_DESIGN_GEOMETRIC_PRESENTATION_REPRESENTATION (  '', ( #235 ), #95 ) ;
#274 = EDGE_LOOP ( 'NONE', ( #163 ) ) ;
#275 = FACE_OUTER_BOUND ( 'NONE', #297, .T. ) ;
#276 = EDGE_LOOP ( 'NONE', ( #59 ) ) ;
#277 = EDGE_CURVE ( 'NONE', #298, #298, #74, .T. ) ;
#278 = FACE_BOUND ( 'NONE', #183, .T. ) ;
#279 = EDGE_LOOP ( 'NONE', ( #90 ) ) ;
#280 = ORIENTED_EDGE ( 'NONE', *, *, #48, .F. ) ;
#281 =( GEOMETRIC_REPRESENTATION_CONTEXT ( 3 ) GLOBAL_UNCERTAINTY_ASSIGNED_CONTEXT ( ( #197 ) ) GLOBAL_UNIT_ASSIGNED_CONTEXT ( ( #263, #70, #167 ) ) REPRESENTATION_CONTEXT ( 'NONE', 'WORKASPACE' ) );
#282 = VERTEX_POINT ( 'NONE', #161 ) ;
#283 = CARTESIAN_POINT ( 'NONE',  ( -13.35000000000000142, 5.749999999999996447, 0.000000000000000000 ) ) ;
#284 = PRODUCT_CONTEXT ( 'NONE', #203, 'mechanical' ) ;
#285 = DIRECTION ( 'NONE',  ( -0.000000000000000000, 0.000000000000000000, 1.000000000000000000 ) ) ;
#286 = DIRECTION ( 'NONE',  ( -1.000000000000000000, -0.000000000000000000, -0.000000000000000000 ) ) ;
#287 = CONICAL_SURFACE ( 'NONE', #61, 5.422649730810368496, 0.5235987755983040337 ) ;
#288 = CARTESIAN_POINT ( 'NONE',  ( 15.00000000000000000, 0.000000000000000000, 0.000000000000000000 ) ) ;
#289 = DIRECTION ( 'NONE',  ( -1.000000000000000000, 0.000000000000000000, -0.000000000000000000 ) ) ;
#290 = AXIS2_PLACEMENT_3D ( 'NONE', #150, #249, #151 ) ;
#291 = DIRECTION ( 'NONE',  ( -1.000000000000000000, -0.000000000000000000, -0.000000000000000000 ) ) ;
#292 = CARTESIAN_POINT ( 'NONE',  ( 12.25000000000000000, 5.749999999999999112, 0.000000000000000000 ) ) ;
#293 = AXIS2_PLACEMENT_3D ( 'NONE', #55, #250, #205 ) ;
#294 = ADVANCED_FACE ( 'NONE', ( #34, #125 ), #206, .T. ) ;
#295 = ORIENTED_EDGE ( 'NONE', *, *, #81, .T. ) ;
#296 = EDGE_CURVE ( 'NONE', #91, #91, #5, .T. ) ;
#297 = EDGE_LOOP ( 'NONE', ( #184 ) ) ;
#298 = VERTEX_POINT ( 'NONE', #139 ) ;
#299 = SHAPE_DEFINITION_REPRESENTATION ( #105, #188 ) ;
#300 = DIRECTION ( 'NONE',  ( 0.000000000000000000, 0.000000000000000000, 1.000000000000000000 ) ) ;
ENDSEC;
END-ISO-10303-21;
