ISO-10303-21;
HEADER;
FILE_DESCRIPTION (( 'STEP AP214' ),
    '1' );
FILE_NAME ('76.04.06.0002.step',
    '2021-04-02T18:04:22',
    ( '' ),
    ( '' ),
    'SwSTEP 2.0',
    'SolidWorks 2021',
    '' );
FILE_SCHEMA (( 'AUTOMOTIVE_DESIGN' ));
ENDSEC;

DATA;
#1 = MECHANICAL_DESIGN_GEOMETRIC_PRESENTATION_REPRESENTATION (  '', ( #130 ), #28 ) ;
#2 = CIRCLE ( 'NONE', #23, 3.999999999999998224 ) ;
#3 = FACE_BOUND ( 'NONE', #4, .T. ) ;
#4 = EDGE_LOOP ( 'NONE', ( #20 ) ) ;
#5 = EDGE_LOOP ( 'NONE', ( #135 ) ) ;
#6 = CARTESIAN_POINT ( 'NONE',  ( -8.250000000000000000, 0.000000000000000000, 0.000000000000000000 ) ) ;
#7 = ORIENTED_EDGE ( 'NONE', *, *, #228, .F. ) ;
#8 =( GEOMETRIC_REPRESENTATION_CONTEXT ( 3 ) GLOBAL_UNCERTAINTY_ASSIGNED_CONTEXT ( ( #128 ) ) GLOBAL_UNIT_ASSIGNED_CONTEXT ( ( #299, #274, #87 ) ) REPRESENTATION_CONTEXT ( 'NONE', 'WORKASPACE' ) );
#9 = CARTESIAN_POINT ( 'NONE',  ( -9.150000000000000355, 0.000000000000000000, 3.799999999999998046 ) ) ;
#10 = DIRECTION ( 'NONE',  ( -1.000000000000000000, -0.000000000000000000, -0.000000000000000000 ) ) ;
#11 = DIRECTION ( 'NONE',  ( 0.000000000000000000, 0.000000000000000000, 1.000000000000000000 ) ) ;
#12 = DIRECTION ( 'NONE',  ( 1.000000000000000000, 0.000000000000000000, 0.000000000000000000 ) ) ;
#13 = CIRCLE ( 'NONE', #243, 3.999999999999997335 ) ;
#14 = VERTEX_POINT ( 'NONE', #152 ) ;
#15 = EDGE_CURVE ( 'NONE', #260, #260, #102, .T. ) ;
#16 = CARTESIAN_POINT ( 'NONE',  ( -9.499999999999998224, 0.000000000000000000, 0.000000000000000000 ) ) ;
#17 = DIRECTION ( 'NONE',  ( -1.000000000000000000, -0.000000000000000000, -0.000000000000000000 ) ) ;
#18 = CARTESIAN_POINT ( 'NONE',  ( 8.250000000000001776, 0.000000000000000000, 0.000000000000000000 ) ) ;
#19 = CARTESIAN_POINT ( 'NONE',  ( 0.000000000000000000, 0.000000000000000000, 0.000000000000000000 ) ) ;
#20 = ORIENTED_EDGE ( 'NONE', *, *, #160, .F. ) ;
#21 = CYLINDRICAL_SURFACE ( 'NONE', #145, 3.999999999999998224 ) ;
#22 = DIRECTION ( 'NONE',  ( 0.000000000000000000, 0.000000000000000000, 1.000000000000000000 ) ) ;
#23 = AXIS2_PLACEMENT_3D ( 'NONE', #77, #100, #37 ) ;
#24 = APPLICATION_PROTOCOL_DEFINITION ( 'draft international standard', 'automotive_design', 1998, #155 ) ;
#25 = ORIENTED_EDGE ( 'NONE', *, *, #160, .T. ) ;
#26 = EDGE_LOOP ( 'NONE', ( #29 ) ) ;
#27 = DIRECTION ( 'NONE',  ( -1.000000000000000000, -0.000000000000000000, -0.000000000000000000 ) ) ;
#28 =( GEOMETRIC_REPRESENTATION_CONTEXT ( 3 ) GLOBAL_UNCERTAINTY_ASSIGNED_CONTEXT ( ( #185 ) ) GLOBAL_UNIT_ASSIGNED_CONTEXT ( ( #181, #294, #82 ) ) REPRESENTATION_CONTEXT ( 'NONE', 'WORKASPACE' ) );
#29 = ORIENTED_EDGE ( 'NONE', *, *, #15, .T. ) ;
#30 = CARTESIAN_POINT ( 'NONE',  ( 10.00000000000000000, 0.000000000000000000, 0.000000000000000000 ) ) ;
#31 = CARTESIAN_POINT ( 'NONE',  ( 9.150000000000000355, 0.000000000000000000, 0.000000000000000000 ) ) ;
#32 = PLANE ( 'NONE',  #189 ) ;
#33 = VERTEX_POINT ( 'NONE', #268 ) ;
#34 =( NAMED_UNIT ( * ) PLANE_ANGLE_UNIT ( ) SI_UNIT ( $, .RADIAN. ) );
#35 = FACE_OUTER_BOUND ( 'NONE', #221, .T. ) ;
#36 = COLOUR_RGB ( '',0.8274509803921568096, 0.8392156862745098200, 0.8274509803921568096 ) ;
#37 = DIRECTION ( 'NONE',  ( 0.000000000000000000, 0.000000000000000000, 1.000000000000000000 ) ) ;
#38 = CIRCLE ( 'NONE', #204, 3.999999999999998224 ) ;
#39 = DIRECTION ( 'NONE',  ( -1.000000000000000000, -0.000000000000000000, -0.000000000000000000 ) ) ;
#40 = SURFACE_SIDE_STYLE ('',( #275 ) ) ;
#41 = CLOSED_SHELL ( 'NONE', ( #169, #206, #267, #180, #110, #295, #247, #149, #133, #107, #45, #66, #211 ) ) ;
#42 = CYLINDRICAL_SURFACE ( 'NONE', #163, 3.799999999999998046 ) ;
#43 = DIRECTION ( 'NONE',  ( -1.000000000000000000, -0.000000000000000000, -0.000000000000000000 ) ) ;
#44 = FACE_OUTER_BOUND ( 'NONE', #164, .T. ) ;
#45 = ADVANCED_FACE ( 'NONE', ( #245, #231 ), #21, .T. ) ;
#46 = DIRECTION ( 'NONE',  ( 1.000000000000000000, 0.000000000000000000, 0.000000000000000000 ) ) ;
#47 = EDGE_CURVE ( 'NONE', #199, #199, #297, .T. ) ;
#48 = DIRECTION ( 'NONE',  ( -1.000000000000000000, -0.000000000000000000, -0.000000000000000000 ) ) ;
#49 = ORIENTED_EDGE ( 'NONE', *, *, #187, .F. ) ;
#50 = CIRCLE ( 'NONE', #156, 3.799999999999998046 ) ;
#51 = DIRECTION ( 'NONE',  ( -1.000000000000000000, -0.000000000000000000, -0.000000000000000000 ) ) ;
#52 = FACE_OUTER_BOUND ( 'NONE', #280, .T. ) ;
#53 = CARTESIAN_POINT ( 'NONE',  ( -8.250000000000000000, 0.000000000000000000, 3.799999999999998046 ) ) ;
#54 = EDGE_LOOP ( 'NONE', ( #230 ) ) ;
#55 = VERTEX_POINT ( 'NONE', #151 ) ;
#56 = CIRCLE ( 'NONE', #215, 4.000000000000000000 ) ;
#57 =( LENGTH_UNIT ( ) NAMED_UNIT ( * ) SI_UNIT ( .MILLI., .METRE. ) );
#58 = CARTESIAN_POINT ( 'NONE',  ( -10.00000000000000000, 0.000000000000000000, 0.000000000000000000 ) ) ;
#59 = PRODUCT_RELATED_PRODUCT_CATEGORY ( 'part', '', ( #96 ) ) ;
#60 = CARTESIAN_POINT ( 'NONE',  ( -10.00000000000000000, 3.711324865405182472, 0.000000000000000000 ) ) ;
#61 = DIRECTION ( 'NONE',  ( -1.000000000000000000, -0.000000000000000000, -0.000000000000000000 ) ) ;
#62 = STYLED_ITEM ( 'NONE', ( #137 ), #197 ) ;
#63 = DIRECTION ( 'NONE',  ( -1.000000000000000000, -0.000000000000000000, -0.000000000000000000 ) ) ;
#64 = FILL_AREA_STYLE ('',( #200 ) ) ;
#65 = APPLICATION_PROTOCOL_DEFINITION ( 'draft international standard', 'automotive_design', 1998, #144 ) ;
#66 = ADVANCED_FACE ( 'NONE', ( #201, #161 ), #218, .T. ) ;
#67 = AXIS2_PLACEMENT_3D ( 'NONE', #250, #142, #273 ) ;
#68 = ORIENTED_EDGE ( 'NONE', *, *, #286, .F. ) ;
#69 = CONICAL_SURFACE ( 'NONE', #74, 3.711324865405182472, 0.5235987755983023684 ) ;
#70 = ORIENTED_EDGE ( 'NONE', *, *, #72, .F. ) ;
#71 = CARTESIAN_POINT ( 'NONE',  ( 8.250000000000001776, 0.000000000000000000, 4.000000000000000000 ) ) ;
#72 = EDGE_CURVE ( 'NONE', #33, #33, #125, .T. ) ;
#73 = PRODUCT_DEFINITION_SHAPE ( 'NONE', 'NONE',  #85 ) ;
#74 = AXIS2_PLACEMENT_3D ( 'NONE', #30, #48, #95 ) ;
#75 = DIRECTION ( 'NONE',  ( -1.000000000000000000, 0.000000000000000000, -0.000000000000000000 ) ) ;
#76 = EDGE_CURVE ( 'NONE', #14, #14, #89, .T. ) ;
#77 = CARTESIAN_POINT ( 'NONE',  ( -8.250000000000000000, 0.000000000000000000, 0.000000000000000000 ) ) ;
#78 = FACE_OUTER_BOUND ( 'NONE', #171, .T. ) ;
#79 = AXIS2_PLACEMENT_3D ( 'NONE', #226, #84, #293 ) ;
#80 = MANIFOLD_SOLID_BREP ( 'Revolve1', #41 ) ;
#81 =( GEOMETRIC_REPRESENTATION_CONTEXT ( 3 ) GLOBAL_UNCERTAINTY_ASSIGNED_CONTEXT ( ( #213 ) ) GLOBAL_UNIT_ASSIGNED_CONTEXT ( ( #57, #34, #205 ) ) REPRESENTATION_CONTEXT ( 'NONE', 'WORKASPACE' ) );
#82 =( NAMED_UNIT ( * ) SI_UNIT ( $, .STERADIAN. ) SOLID_ANGLE_UNIT ( ) );
#83 = CARTESIAN_POINT ( 'NONE',  ( 10.00000000000000000, 0.000000000000000000, 0.000000000000000000 ) ) ;
#84 = DIRECTION ( 'NONE',  ( -1.000000000000000000, -0.000000000000000000, -0.000000000000000000 ) ) ;
#85 = PRODUCT_DEFINITION ( 'UNKNOWN', '', #255, #124 ) ;
#86 = SHAPE_DEFINITION_REPRESENTATION ( #73, #197 ) ;
#87 =( NAMED_UNIT ( * ) SI_UNIT ( $, .STERADIAN. ) SOLID_ANGLE_UNIT ( ) );
#88 = ORIENTED_EDGE ( 'NONE', *, *, #187, .T. ) ;
#89 = CIRCLE ( 'NONE', #264, 4.000000000000000888 ) ;
#90 = DIRECTION ( 'NONE',  ( 1.000000000000000000, 0.000000000000000000, 0.000000000000000000 ) ) ;
#91 = CARTESIAN_POINT ( 'NONE',  ( 9.150000000000002132, 4.000000000000000888, 0.000000000000000000 ) ) ;
#92 = DIRECTION ( 'NONE',  ( 0.000000000000000000, 0.000000000000000000, 1.000000000000000000 ) ) ;
#93 = CARTESIAN_POINT ( 'NONE',  ( -8.250000000000000000, 3.999999999999998224, 0.000000000000000000 ) ) ;
#94 = EDGE_LOOP ( 'NONE', ( #278 ) ) ;
#95 = DIRECTION ( 'NONE',  ( 0.000000000000000000, 0.000000000000000000, 1.000000000000000000 ) ) ;
#96 = PRODUCT ( '76.04.06.0002', '76.04.06.0002', '', ( #277 ) ) ;
#97 = FACE_BOUND ( 'NONE', #208, .T. ) ;
#98 = AXIS2_PLACEMENT_3D ( 'NONE', #103, #10, #216 ) ;
#99 = VERTEX_POINT ( 'NONE', #192 ) ;
#100 = DIRECTION ( 'NONE',  ( -1.000000000000000000, -0.000000000000000000, -0.000000000000000000 ) ) ;
#101 = CARTESIAN_POINT ( 'NONE',  ( -9.499999999999998224, 0.000000000000000000, 0.000000000000000000 ) ) ;
#102 = CIRCLE ( 'NONE', #168, 3.711324865405182472 ) ;
#103 = CARTESIAN_POINT ( 'NONE',  ( -10.00000000000000000, 0.000000000000000000, 0.000000000000000000 ) ) ;
#104 = CARTESIAN_POINT ( 'NONE',  ( -9.150000000000000355, 0.000000000000000000, 0.000000000000000000 ) ) ;
#105 = DIRECTION ( 'NONE',  ( 0.000000000000000000, 0.000000000000000000, 1.000000000000000000 ) ) ;
#106 = PRESENTATION_STYLE_ASSIGNMENT (( #276 ) ) ;
#107 = ADVANCED_FACE ( 'NONE', ( #272, #252 ), #158, .F. ) ;
#108 = DIRECTION ( 'NONE',  ( -1.000000000000000000, -0.000000000000000000, -0.000000000000000000 ) ) ;
#109 = ORIENTED_EDGE ( 'NONE', *, *, #72, .T. ) ;
#110 = ADVANCED_FACE ( 'NONE', ( #115, #78 ), #179, .T. ) ;
#111 = CARTESIAN_POINT ( 'NONE',  ( 9.150000000000000355, 0.000000000000000000, 0.000000000000000000 ) ) ;
#112 = EDGE_CURVE ( 'NONE', #290, #290, #138, .T. ) ;
#113 = PLANE ( 'NONE',  #170 ) ;
#114 = ORIENTED_EDGE ( 'NONE', *, *, #292, .F. ) ;
#115 = FACE_OUTER_BOUND ( 'NONE', #232, .T. ) ;
#116 = EDGE_LOOP ( 'NONE', ( #212 ) ) ;
#117 = FACE_OUTER_BOUND ( 'NONE', #131, .T. ) ;
#118 = DIRECTION ( 'NONE',  ( 0.000000000000000000, 0.000000000000000000, 1.000000000000000000 ) ) ;
#119 = EDGE_LOOP ( 'NONE', ( #191 ) ) ;
#120 = PLANE ( 'NONE',  #209 ) ;
#121 = VERTEX_POINT ( 'NONE', #53 ) ;
#122 = CARTESIAN_POINT ( 'NONE',  ( 9.499999999999996447, 0.000000000000000000, 4.000000000000000000 ) ) ;
#123 = DIRECTION ( 'NONE',  ( 0.000000000000000000, 0.000000000000000000, 1.000000000000000000 ) ) ;
#124 = PRODUCT_DEFINITION_CONTEXT ( 'detailed design', #155, 'design' ) ;
#125 = CIRCLE ( 'NONE', #254, 3.711324865405182472 ) ;
#126 = CIRCLE ( 'NONE', #258, 3.799999999999998046 ) ;
#127 = FACE_BOUND ( 'NONE', #284, .T. ) ;
#128 = UNCERTAINTY_MEASURE_WITH_UNIT (LENGTH_MEASURE( 1.000000000000000082E-05 ), #299, 'distance_accuracy_value', 'NONE');
#129 = DIRECTION ( 'NONE',  ( 0.000000000000000000, 0.000000000000000000, 1.000000000000000000 ) ) ;
#130 = STYLED_ITEM ( 'NONE', ( #106 ), #80 ) ;
#131 = EDGE_LOOP ( 'NONE', ( #257 ) ) ;
#132 = DIRECTION ( 'NONE',  ( 0.000000000000000000, 0.000000000000000000, 1.000000000000000000 ) ) ;
#133 = ADVANCED_FACE ( 'NONE', ( #203, #248 ), #42, .T. ) ;
#134 = SURFACE_STYLE_USAGE ( .BOTH. , #251 ) ;
#135 = ORIENTED_EDGE ( 'NONE', *, *, #292, .T. ) ;
#136 = EDGE_LOOP ( 'NONE', ( #259 ) ) ;
#137 = PRESENTATION_STYLE_ASSIGNMENT (( #134 ) ) ;
#138 = CIRCLE ( 'NONE', #153, 3.799999999999999822 ) ;
#139 = FACE_OUTER_BOUND ( 'NONE', #147, .T. ) ;
#140 = AXIS2_PLACEMENT_3D ( 'NONE', #19, #22, #166 ) ;
#141 = DIRECTION ( 'NONE',  ( -0.000000000000000000, 0.000000000000000000, 1.000000000000000000 ) ) ;
#142 = DIRECTION ( 'NONE',  ( -1.000000000000000000, 0.000000000000000000, -0.000000000000000000 ) ) ;
#143 = DIRECTION ( 'NONE',  ( 0.000000000000000000, 0.000000000000000000, -1.000000000000000000 ) ) ;
#144 = APPLICATION_CONTEXT ( 'automotive_design' ) ;
#145 = AXIS2_PLACEMENT_3D ( 'NONE', #296, #157, #182 ) ;
#146 = AXIS2_PLACEMENT_3D ( 'NONE', #58, #177, #123 ) ;
#147 = EDGE_LOOP ( 'NONE', ( #109 ) ) ;
#148 = DIRECTION ( 'NONE',  ( 0.000000000000000000, 0.000000000000000000, 1.000000000000000000 ) ) ;
#149 = ADVANCED_FACE ( 'NONE', ( #97, #52 ), #238, .F. ) ;
#150 = DIRECTION ( 'NONE',  ( 0.000000000000000000, 0.000000000000000000, 1.000000000000000000 ) ) ;
#151 = CARTESIAN_POINT ( 'NONE',  ( -9.499999999999998224, 0.000000000000000000, 3.999999999999997335 ) ) ;
#152 = CARTESIAN_POINT ( 'NONE',  ( 9.150000000000000355, 0.000000000000000000, 4.000000000000000888 ) ) ;
#153 = AXIS2_PLACEMENT_3D ( 'NONE', #18, #63, #159 ) ;
#154 = FACE_OUTER_BOUND ( 'NONE', #54, .T. ) ;
#155 = APPLICATION_CONTEXT ( 'automotive_design' ) ;
#156 = AXIS2_PLACEMENT_3D ( 'NONE', #104, #194, #219 ) ;
#157 = DIRECTION ( 'NONE',  ( -1.000000000000000000, -0.000000000000000000, -0.000000000000000000 ) ) ;
#158 = PLANE ( 'NONE',  #67 ) ;
#159 = DIRECTION ( 'NONE',  ( 0.000000000000000000, 0.000000000000000000, 1.000000000000000000 ) ) ;
#160 = EDGE_CURVE ( 'NONE', #287, #287, #195, .T. ) ;
#161 = FACE_OUTER_BOUND ( 'NONE', #5, .T. ) ;
#162 = FILL_AREA_STYLE ('',( #253 ) ) ;
#163 = AXIS2_PLACEMENT_3D ( 'NONE', #224, #108, #118 ) ;
#164 = EDGE_LOOP ( 'NONE', ( #202 ) ) ;
#165 = CARTESIAN_POINT ( 'NONE',  ( -10.00000000000000000, 0.000000000000000000, 0.000000000000000000 ) ) ;
#166 = DIRECTION ( 'NONE',  ( 1.000000000000000000, 0.000000000000000000, 0.000000000000000000 ) ) ;
#167 = ORIENTED_EDGE ( 'NONE', *, *, #112, .T. ) ;
#168 = AXIS2_PLACEMENT_3D ( 'NONE', #83, #43, #244 ) ;
#169 = ADVANCED_FACE ( 'NONE', ( #190 ), #113, .F. ) ;
#170 = AXIS2_PLACEMENT_3D ( 'NONE', #281, #184, #141 ) ;
#171 = EDGE_LOOP ( 'NONE', ( #25 ) ) ;
#172 = CARTESIAN_POINT ( 'NONE',  ( 9.150000000000000355, 0.000000000000000000, 3.800000000000000266 ) ) ;
#173 = EDGE_LOOP ( 'NONE', ( #114 ) ) ;
#174 = VERTEX_POINT ( 'NONE', #9 ) ;
#175 = CARTESIAN_POINT ( 'NONE',  ( -9.150000000000002132, 0.000000000000000000, 0.000000000000000000 ) ) ;
#176 = PRESENTATION_LAYER_ASSIGNMENT (  '', '', ( #62 ) ) ;
#177 = DIRECTION ( 'NONE',  ( -1.000000000000000000, -0.000000000000000000, -0.000000000000000000 ) ) ;
#178 = DIRECTION ( 'NONE',  ( 0.000000000000000000, 0.000000000000000000, -1.000000000000000000 ) ) ;
#179 = CYLINDRICAL_SURFACE ( 'NONE', #241, 3.800000000000000266 ) ;
#180 = ADVANCED_FACE ( 'NONE', ( #3, #44 ), #120, .F. ) ;
#181 =( LENGTH_UNIT ( ) NAMED_UNIT ( * ) SI_UNIT ( .MILLI., .METRE. ) );
#182 = DIRECTION ( 'NONE',  ( 0.000000000000000000, 0.000000000000000000, 1.000000000000000000 ) ) ;
#183 = ORIENTED_EDGE ( 'NONE', *, *, #112, .F. ) ;
#184 = DIRECTION ( 'NONE',  ( -1.000000000000000000, 0.000000000000000000, -0.000000000000000000 ) ) ;
#185 = UNCERTAINTY_MEASURE_WITH_UNIT (LENGTH_MEASURE( 1.000000000000000082E-05 ), #181, 'distance_accuracy_value', 'NONE');
#186 = EDGE_LOOP ( 'NONE', ( #225 ) ) ;
#187 = EDGE_CURVE ( 'NONE', #121, #121, #126, .T. ) ;
#188 = DIRECTION ( 'NONE',  ( 0.000000000000000000, 0.000000000000000000, -1.000000000000000000 ) ) ;
#189 = AXIS2_PLACEMENT_3D ( 'NONE', #198, #75, #220 ) ;
#190 = FACE_OUTER_BOUND ( 'NONE', #116, .T. ) ;
#191 = ORIENTED_EDGE ( 'NONE', *, *, #228, .T. ) ;
#192 = CARTESIAN_POINT ( 'NONE',  ( -8.250000000000000000, 0.000000000000000000, 3.999999999999998224 ) ) ;
#193 = CARTESIAN_POINT ( 'NONE',  ( 8.250000000000001776, 0.000000000000000000, 3.799999999999999822 ) ) ;
#194 = DIRECTION ( 'NONE',  ( -1.000000000000000000, -0.000000000000000000, -0.000000000000000000 ) ) ;
#195 = CIRCLE ( 'NONE', #298, 3.800000000000000266 ) ;
#196 = EDGE_CURVE ( 'NONE', #214, #214, #56, .T. ) ;
#197 = ADVANCED_BREP_SHAPE_REPRESENTATION ( '76.04.06.0002', ( #80, #140 ), #81 ) ;
#198 = CARTESIAN_POINT ( 'NONE',  ( 8.250000000000000000, 3.799999999999999822, 0.000000000000000000 ) ) ;
#199 = VERTEX_POINT ( 'NONE', #122 ) ;
#200 = FILL_AREA_STYLE_COLOUR ( '', #36 ) ;
#201 = FACE_BOUND ( 'NONE', #207, .T. ) ;
#202 = ORIENTED_EDGE ( 'NONE', *, *, #76, .T. ) ;
#203 = FACE_OUTER_BOUND ( 'NONE', #246, .T. ) ;
#204 = AXIS2_PLACEMENT_3D ( 'NONE', #175, #217, #11 ) ;
#205 =( NAMED_UNIT ( * ) SI_UNIT ( $, .STERADIAN. ) SOLID_ANGLE_UNIT ( ) );
#206 = ADVANCED_FACE ( 'NONE', ( #117, #210 ), #69, .T. ) ;
#207 = EDGE_LOOP ( 'NONE', ( #70 ) ) ;
#208 = EDGE_LOOP ( 'NONE', ( #49 ) ) ;
#209 = AXIS2_PLACEMENT_3D ( 'NONE', #91, #46, #143 ) ;
#210 = FACE_BOUND ( 'NONE', #26, .T. ) ;
#211 = ADVANCED_FACE ( 'NONE', ( #139 ), #229, .F. ) ;
#212 = ORIENTED_EDGE ( 'NONE', *, *, #15, .F. ) ;
#213 = UNCERTAINTY_MEASURE_WITH_UNIT (LENGTH_MEASURE( 1.000000000000000082E-05 ), #57, 'distance_accuracy_value', 'NONE');
#214 = VERTEX_POINT ( 'NONE', #71 ) ;
#215 = AXIS2_PLACEMENT_3D ( 'NONE', #233, #27, #148 ) ;
#216 = DIRECTION ( 'NONE',  ( 0.000000000000000000, 0.000000000000000000, 1.000000000000000000 ) ) ;
#217 = DIRECTION ( 'NONE',  ( -1.000000000000000000, -0.000000000000000000, -0.000000000000000000 ) ) ;
#218 = CONICAL_SURFACE ( 'NONE', #223, 3.999999999999997335, 0.5235987755982999259 ) ;
#219 = DIRECTION ( 'NONE',  ( 0.000000000000000000, 0.000000000000000000, 1.000000000000000000 ) ) ;
#220 = DIRECTION ( 'NONE',  ( -0.000000000000000000, 0.000000000000000000, 1.000000000000000000 ) ) ;
#221 = EDGE_LOOP ( 'NONE', ( #262 ) ) ;
#222 = DIRECTION ( 'NONE',  ( 0.000000000000000000, 0.000000000000000000, -1.000000000000000000 ) ) ;
#223 = AXIS2_PLACEMENT_3D ( 'NONE', #16, #291, #222 ) ;
#224 = CARTESIAN_POINT ( 'NONE',  ( -10.00000000000000000, 0.000000000000000000, 0.000000000000000000 ) ) ;
#225 = ORIENTED_EDGE ( 'NONE', *, *, #196, .T. ) ;
#226 = CARTESIAN_POINT ( 'NONE',  ( 9.499999999999996447, 0.000000000000000000, 0.000000000000000000 ) ) ;
#227 = ORIENTED_EDGE ( 'NONE', *, *, #286, .T. ) ;
#228 = EDGE_CURVE ( 'NONE', #174, #174, #50, .T. ) ;
#229 = PLANE ( 'NONE',  #265 ) ;
#230 = ORIENTED_EDGE ( 'NONE', *, *, #47, .T. ) ;
#231 = FACE_OUTER_BOUND ( 'NONE', #234, .T. ) ;
#232 = EDGE_LOOP ( 'NONE', ( #183 ) ) ;
#233 = CARTESIAN_POINT ( 'NONE',  ( 8.250000000000001776, 0.000000000000000000, 0.000000000000000000 ) ) ;
#234 = EDGE_LOOP ( 'NONE', ( #227 ) ) ;
#235 = DIRECTION ( 'NONE',  ( 0.000000000000000000, 0.000000000000000000, 1.000000000000000000 ) ) ;
#236 = FACE_OUTER_BOUND ( 'NONE', #94, .T. ) ;
#237 = FACE_OUTER_BOUND ( 'NONE', #186, .T. ) ;
#238 = PLANE ( 'NONE',  #266 ) ;
#239 = CARTESIAN_POINT ( 'NONE',  ( 10.00000000000000000, 0.000000000000000000, 3.711324865405182472 ) ) ;
#240 = EDGE_CURVE ( 'NONE', #99, #99, #2, .T. ) ;
#241 = AXIS2_PLACEMENT_3D ( 'NONE', #270, #61, #105 ) ;
#242 = CYLINDRICAL_SURFACE ( 'NONE', #146, 4.000000000000000000 ) ;
#243 = AXIS2_PLACEMENT_3D ( 'NONE', #101, #288, #150 ) ;
#244 = DIRECTION ( 'NONE',  ( 0.000000000000000000, 0.000000000000000000, 1.000000000000000000 ) ) ;
#245 = FACE_OUTER_BOUND ( 'NONE', #173, .T. ) ;
#246 = EDGE_LOOP ( 'NONE', ( #7 ) ) ;
#247 = ADVANCED_FACE ( 'NONE', ( #236, #237 ), #269, .T. ) ;
#248 = FACE_OUTER_BOUND ( 'NONE', #300, .T. ) ;
#249 = PRESENTATION_LAYER_ASSIGNMENT (  '', '', ( #130 ) ) ;
#250 = CARTESIAN_POINT ( 'NONE',  ( -9.150000000000002132, 3.799999999999998046, 0.000000000000000000 ) ) ;
#251 = SURFACE_SIDE_STYLE ('',( #279 ) ) ;
#252 = FACE_BOUND ( 'NONE', #119, .T. ) ;
#253 = FILL_AREA_STYLE_COLOUR ( '', #283 ) ;
#254 = AXIS2_PLACEMENT_3D ( 'NONE', #165, #39, #132 ) ;
#255 = PRODUCT_DEFINITION_FORMATION_WITH_SPECIFIED_SOURCE ( 'ANY', '', #96, .NOT_KNOWN. ) ;
#256 = ORIENTED_EDGE ( 'NONE', *, *, #240, .T. ) ;
#257 = ORIENTED_EDGE ( 'NONE', *, *, #47, .F. ) ;
#258 = AXIS2_PLACEMENT_3D ( 'NONE', #6, #51, #92 ) ;
#259 = ORIENTED_EDGE ( 'NONE', *, *, #76, .F. ) ;
#260 = VERTEX_POINT ( 'NONE', #239 ) ;
#261 = DIRECTION ( 'NONE',  ( -1.000000000000000000, -0.000000000000000000, -0.000000000000000000 ) ) ;
#262 = ORIENTED_EDGE ( 'NONE', *, *, #196, .F. ) ;
#263 = CARTESIAN_POINT ( 'NONE',  ( -9.150000000000002132, 0.000000000000000000, 3.999999999999998224 ) ) ;
#264 = AXIS2_PLACEMENT_3D ( 'NONE', #111, #17, #129 ) ;
#265 = AXIS2_PLACEMENT_3D ( 'NONE', #60, #12, #178 ) ;
#266 = AXIS2_PLACEMENT_3D ( 'NONE', #93, #90, #188 ) ;
#267 = ADVANCED_FACE ( 'NONE', ( #285, #154 ), #242, .T. ) ;
#268 = CARTESIAN_POINT ( 'NONE',  ( -10.00000000000000000, 0.000000000000000000, 3.711324865405182472 ) ) ;
#269 = CYLINDRICAL_SURFACE ( 'NONE', #98, 3.999999999999999112 ) ;
#270 = CARTESIAN_POINT ( 'NONE',  ( -10.00000000000000000, 0.000000000000000000, 0.000000000000000000 ) ) ;
#271 = MECHANICAL_DESIGN_GEOMETRIC_PRESENTATION_REPRESENTATION (  '', ( #62 ), #8 ) ;
#272 = FACE_OUTER_BOUND ( 'NONE', #282, .T. ) ;
#273 = DIRECTION ( 'NONE',  ( -0.000000000000000000, 0.000000000000000000, 1.000000000000000000 ) ) ;
#274 =( NAMED_UNIT ( * ) PLANE_ANGLE_UNIT ( ) SI_UNIT ( $, .RADIAN. ) );
#275 = SURFACE_STYLE_FILL_AREA ( #64 ) ;
#276 = SURFACE_STYLE_USAGE ( .BOTH. , #40 ) ;
#277 = PRODUCT_CONTEXT ( 'NONE', #144, 'mechanical' ) ;
#278 = ORIENTED_EDGE ( 'NONE', *, *, #240, .F. ) ;
#279 = SURFACE_STYLE_FILL_AREA ( #162 ) ;
#280 = EDGE_LOOP ( 'NONE', ( #256 ) ) ;
#281 = CARTESIAN_POINT ( 'NONE',  ( 10.00000000000000000, 0.000000000000000000, 0.000000000000000000 ) ) ;
#282 = EDGE_LOOP ( 'NONE', ( #68 ) ) ;
#283 = COLOUR_RGB ( '',0.8274509803921568096, 0.8392156862745098200, 0.8274509803921568096 ) ;
#284 = EDGE_LOOP ( 'NONE', ( #167 ) ) ;
#285 = FACE_OUTER_BOUND ( 'NONE', #136, .T. ) ;
#286 = EDGE_CURVE ( 'NONE', #289, #289, #38, .T. ) ;
#287 = VERTEX_POINT ( 'NONE', #172 ) ;
#288 = DIRECTION ( 'NONE',  ( -1.000000000000000000, -0.000000000000000000, -0.000000000000000000 ) ) ;
#289 = VERTEX_POINT ( 'NONE', #263 ) ;
#290 = VERTEX_POINT ( 'NONE', #193 ) ;
#291 = DIRECTION ( 'NONE',  ( 1.000000000000000000, 0.000000000000000000, 0.000000000000000000 ) ) ;
#292 = EDGE_CURVE ( 'NONE', #55, #55, #13, .T. ) ;
#293 = DIRECTION ( 'NONE',  ( 0.000000000000000000, 0.000000000000000000, 1.000000000000000000 ) ) ;
#294 =( NAMED_UNIT ( * ) PLANE_ANGLE_UNIT ( ) SI_UNIT ( $, .RADIAN. ) );
#295 = ADVANCED_FACE ( 'NONE', ( #35, #127 ), #32, .F. ) ;
#296 = CARTESIAN_POINT ( 'NONE',  ( -10.00000000000000000, 0.000000000000000000, 0.000000000000000000 ) ) ;
#297 = CIRCLE ( 'NONE', #79, 4.000000000000000000 ) ;
#298 = AXIS2_PLACEMENT_3D ( 'NONE', #31, #261, #235 ) ;
#299 =( LENGTH_UNIT ( ) NAMED_UNIT ( * ) SI_UNIT ( .MILLI., .METRE. ) );
#300 = EDGE_LOOP ( 'NONE', ( #88 ) ) ;
ENDSEC;
END-ISO-10303-21;
