ISO-10303-21;
HEADER;
FILE_DESCRIPTION (( 'STEP AP214' ),
    '1' );
FILE_NAME ('76.04.04.0011.step',
    '2021-04-02T18:04:45',
    ( '' ),
    ( '' ),
    'SwSTEP 2.0',
    'SolidWorks 2021',
    '' );
FILE_SCHEMA (( 'AUTOMOTIVE_DESIGN' ));
ENDSEC;

DATA;
#1 = FILL_AREA_STYLE_COLOUR ( '', #17 ) ;
#2 = PRODUCT_RELATED_PRODUCT_CATEGORY ( 'part', '', ( #123 ) ) ;
#3 = CIRCLE ( 'NONE', #92, 8.133974596215555408 ) ;
#4 = ORIENTED_EDGE ( 'NONE', *, *, #106, .T. ) ;
#5 = AXIS2_PLACEMENT_3D ( 'NONE', #127, #41, #209 ) ;
#6 = VERTEX_POINT ( 'NONE', #85 ) ;
#7 = ADVANCED_FACE ( 'NONE', ( #14, #149 ), #190, .T. ) ;
#8 = VERTEX_POINT ( 'NONE', #103 ) ;
#9 = MECHANICAL_DESIGN_GEOMETRIC_PRESENTATION_REPRESENTATION (  '', ( #59 ), #34 ) ;
#10 = CYLINDRICAL_SURFACE ( 'NONE', #97, 9.000000000000000000 ) ;
#11 = FILL_AREA_STYLE_COLOUR ( '', #199 ) ;
#12 = SURFACE_STYLE_FILL_AREA ( #211 ) ;
#13 = AXIS2_PLACEMENT_3D ( 'NONE', #94, #78, #257 ) ;
#14 = FACE_OUTER_BOUND ( 'NONE', #214, .T. ) ;
#15 = FACE_OUTER_BOUND ( 'NONE', #60, .T. ) ;
#16 = DIRECTION ( 'NONE',  ( 0.000000000000000000, 0.000000000000000000, -1.000000000000000000 ) ) ;
#17 = COLOUR_RGB ( '',0.8274509803921568096, 0.8392156862745098200, 0.8274509803921568096 ) ;
#18 = FACE_BOUND ( 'NONE', #49, .T. ) ;
#19 = FACE_OUTER_BOUND ( 'NONE', #22, .T. ) ;
#20 = VERTEX_POINT ( 'NONE', #53 ) ;
#21 = CIRCLE ( 'NONE', #154, 9.000000000000001776 ) ;
#22 = EDGE_LOOP ( 'NONE', ( #84 ) ) ;
#23 = EDGE_LOOP ( 'NONE', ( #44 ) ) ;
#24 = APPLICATION_PROTOCOL_DEFINITION ( 'draft international standard', 'automotive_design', 1998, #108 ) ;
#25 = DIRECTION ( 'NONE',  ( 1.000000000000000000, 0.000000000000000000, 0.000000000000000000 ) ) ;
#26 = CLOSED_SHELL ( 'NONE', ( #206, #7, #115, #67, #37, #245, #258, #111, #148, #175, #239 ) ) ;
#27 = CARTESIAN_POINT ( 'NONE',  ( 45.50000000000001421, 0.000000000000000000, 0.000000000000000000 ) ) ;
#28 = FACE_OUTER_BOUND ( 'NONE', #23, .T. ) ;
#29 = DIRECTION ( 'NONE',  ( -1.000000000000000000, -0.000000000000000000, -0.000000000000000000 ) ) ;
#30 = AXIS2_PLACEMENT_3D ( 'NONE', #240, #122, #242 ) ;
#31 = CYLINDRICAL_SURFACE ( 'NONE', #179, 12.50000000000000000 ) ;
#32 = FACE_BOUND ( 'NONE', #128, .T. ) ;
#33 = CARTESIAN_POINT ( 'NONE',  ( 5.500000000000006217, 0.000000000000000000, 0.000000000000000000 ) ) ;
#34 =( GEOMETRIC_REPRESENTATION_CONTEXT ( 3 ) GLOBAL_UNCERTAINTY_ASSIGNED_CONTEXT ( ( #204 ) ) GLOBAL_UNIT_ASSIGNED_CONTEXT ( ( #151, #66, #45 ) ) REPRESENTATION_CONTEXT ( 'NONE', 'WORKASPACE' ) );
#35 = PRODUCT_DEFINITION_FORMATION_WITH_SPECIFIED_SOURCE ( 'ANY', '', #123, .NOT_KNOWN. ) ;
#36 = CARTESIAN_POINT ( 'NONE',  ( -1.946448829403248536E-16, 0.000000000000000000, 0.000000000000000000 ) ) ;
#37 = ADVANCED_FACE ( 'NONE', ( #232, #210 ), #10, .T. ) ;
#38 = CARTESIAN_POINT ( 'NONE',  ( 42.00000000000000000, 0.000000000000000000, 12.50000000000000178 ) ) ;
#39 = PLANE ( 'NONE',  #170 ) ;
#40 = ORIENTED_EDGE ( 'NONE', *, *, #172, .T. ) ;
#41 = DIRECTION ( 'NONE',  ( 0.000000000000000000, 0.000000000000000000, 1.000000000000000000 ) ) ;
#42 = EDGE_LOOP ( 'NONE', ( #194 ) ) ;
#43 = EDGE_LOOP ( 'NONE', ( #162 ) ) ;
#44 = ORIENTED_EDGE ( 'NONE', *, *, #96, .T. ) ;
#45 =( NAMED_UNIT ( * ) SI_UNIT ( $, .STERADIAN. ) SOLID_ANGLE_UNIT ( ) );
#46 = DIRECTION ( 'NONE',  ( -1.000000000000000000, 0.000000000000000000, -0.000000000000000000 ) ) ;
#47 = STYLED_ITEM ( 'NONE', ( #79 ), #87 ) ;
#48 = DIRECTION ( 'NONE',  ( 0.000000000000000000, 0.000000000000000000, 1.000000000000000000 ) ) ;
#49 = EDGE_LOOP ( 'NONE', ( #187 ) ) ;
#50 = EDGE_LOOP ( 'NONE', ( #229 ) ) ;
#51 = AXIS2_PLACEMENT_3D ( 'NONE', #74, #237, #95 ) ;
#52 = DIRECTION ( 'NONE',  ( 0.000000000000000000, 0.000000000000000000, -1.000000000000000000 ) ) ;
#53 = CARTESIAN_POINT ( 'NONE',  ( 43.50000000000001421, 0.000000000000000000, 12.50000000000000000 ) ) ;
#54 = DIRECTION ( 'NONE',  ( 0.000000000000000000, 0.000000000000000000, 1.000000000000000000 ) ) ;
#55 = AXIS2_PLACEMENT_3D ( 'NONE', #254, #29, #116 ) ;
#56 = FACE_OUTER_BOUND ( 'NONE', #107, .T. ) ;
#57 = DIRECTION ( 'NONE',  ( 0.000000000000000000, 0.000000000000000000, 1.000000000000000000 ) ) ;
#58 = EDGE_LOOP ( 'NONE', ( #64 ) ) ;
#59 = STYLED_ITEM ( 'NONE', ( #176 ), #139 ) ;
#60 = EDGE_LOOP ( 'NONE', ( #40 ) ) ;
#61 = SURFACE_SIDE_STYLE ('',( #81 ) ) ;
#62 = ORIENTED_EDGE ( 'NONE', *, *, #158, .F. ) ;
#63 =( NAMED_UNIT ( * ) SI_UNIT ( $, .STERADIAN. ) SOLID_ANGLE_UNIT ( ) );
#64 = ORIENTED_EDGE ( 'NONE', *, *, #172, .F. ) ;
#65 = ORIENTED_EDGE ( 'NONE', *, *, #166, .F. ) ;
#66 =( NAMED_UNIT ( * ) PLANE_ANGLE_UNIT ( ) SI_UNIT ( $, .RADIAN. ) );
#67 = ADVANCED_FACE ( 'NONE', ( #133, #28 ), #72, .F. ) ;
#68 = DIRECTION ( 'NONE',  ( -1.000000000000000000, -0.000000000000000000, -0.000000000000000000 ) ) ;
#69 = CARTESIAN_POINT ( 'NONE',  ( 4.150000000000005684, 0.000000000000000000, 0.000000000000000000 ) ) ;
#70 = AXIS2_PLACEMENT_3D ( 'NONE', #195, #256, #120 ) ;
#71 =( GEOMETRIC_REPRESENTATION_CONTEXT ( 3 ) GLOBAL_UNCERTAINTY_ASSIGNED_CONTEXT ( ( #155 ) ) GLOBAL_UNIT_ASSIGNED_CONTEXT ( ( #249, #246, #63 ) ) REPRESENTATION_CONTEXT ( 'NONE', 'WORKASPACE' ) );
#72 = PLANE ( 'NONE',  #227 ) ;
#73 = SURFACE_SIDE_STYLE ('',( #12 ) ) ;
#74 = CARTESIAN_POINT ( 'NONE',  ( 5.500000000000006217, 6.500000000000000000, 0.000000000000000000 ) ) ;
#75 = VERTEX_POINT ( 'NONE', #236 ) ;
#76 = DIRECTION ( 'NONE',  ( 0.000000000000000000, 0.000000000000000000, 1.000000000000000000 ) ) ;
#77 = FACE_OUTER_BOUND ( 'NONE', #189, .T. ) ;
#78 = DIRECTION ( 'NONE',  ( -1.000000000000000000, 0.000000000000000000, -0.000000000000000000 ) ) ;
#79 = PRESENTATION_STYLE_ASSIGNMENT (( #243 ) ) ;
#80 = CIRCLE ( 'NONE', #231, 12.50000000000000000 ) ;
#81 = SURFACE_STYLE_FILL_AREA ( #83 ) ;
#82 = ORIENTED_EDGE ( 'NONE', *, *, #152, .T. ) ;
#83 = FILL_AREA_STYLE ('',( #1 ) ) ;
#84 = ORIENTED_EDGE ( 'NONE', *, *, #106, .F. ) ;
#85 = CARTESIAN_POINT ( 'NONE',  ( 5.500000000000006217, 0.000000000000000000, 8.999999999999998224 ) ) ;
#86 = EDGE_LOOP ( 'NONE', ( #65 ) ) ;
#87 = ADVANCED_BREP_SHAPE_REPRESENTATION ( '76.04.04.0011', ( #139, #5 ), #71 ) ;
#88 = DIRECTION ( 'NONE',  ( 0.000000000000000000, 0.000000000000000000, -1.000000000000000000 ) ) ;
#89 = DIRECTION ( 'NONE',  ( -1.000000000000000000, -0.000000000000000000, -0.000000000000000000 ) ) ;
#90 = DIRECTION ( 'NONE',  ( -1.000000000000000000, -0.000000000000000000, -0.000000000000000000 ) ) ;
#91 = SURFACE_STYLE_USAGE ( .BOTH. , #73 ) ;
#92 = AXIS2_PLACEMENT_3D ( 'NONE', #36, #156, #201 ) ;
#93 = PLANE ( 'NONE',  #137 ) ;
#94 = CARTESIAN_POINT ( 'NONE',  ( 45.50000000000001421, 0.000000000000000000, 0.000000000000000000 ) ) ;
#95 = DIRECTION ( 'NONE',  ( 0.000000000000000000, 0.000000000000000000, -1.000000000000000000 ) ) ;
#96 = EDGE_CURVE ( 'NONE', #178, #178, #174, .T. ) ;
#97 = AXIS2_PLACEMENT_3D ( 'NONE', #113, #68, #48 ) ;
#98 = DIRECTION ( 'NONE',  ( -1.000000000000000000, -0.000000000000000000, -0.000000000000000000 ) ) ;
#99 = APPLICATION_CONTEXT ( 'automotive_design' ) ;
#100 = CYLINDRICAL_SURFACE ( 'NONE', #220, 6.500000000000000000 ) ;
#101 = CARTESIAN_POINT ( 'NONE',  ( 4.150000000000005684, 0.000000000000000000, 6.500000000000000000 ) ) ;
#102 = CONICAL_SURFACE ( 'NONE', #250, 8.999999999999996447, 0.5235987755983001479 ) ;
#103 = CARTESIAN_POINT ( 'NONE',  ( 4.150000000000005684, 0.000000000000000000, 8.999999999999996447 ) ) ;
#104 = CARTESIAN_POINT ( 'NONE',  ( 5.500000000000006217, 0.000000000000000000, 6.500000000000000000 ) ) ;
#105 = ORIENTED_EDGE ( 'NONE', *, *, #158, .T. ) ;
#106 = EDGE_CURVE ( 'NONE', #153, #153, #145, .T. ) ;
#107 = EDGE_LOOP ( 'NONE', ( #212 ) ) ;
#108 = APPLICATION_CONTEXT ( 'automotive_design' ) ;
#109 = APPLICATION_PROTOCOL_DEFINITION ( 'draft international standard', 'automotive_design', 1998, #99 ) ;
#110 = EDGE_LOOP ( 'NONE', ( #247 ) ) ;
#111 = ADVANCED_FACE ( 'NONE', ( #230, #216 ), #93, .F. ) ;
#112 = FACE_OUTER_BOUND ( 'NONE', #184, .T. ) ;
#113 = CARTESIAN_POINT ( 'NONE',  ( 0.000000000000000000, 0.000000000000000000, 0.000000000000000000 ) ) ;
#114 = DIRECTION ( 'NONE',  ( 0.000000000000000000, 0.000000000000000000, 1.000000000000000000 ) ) ;
#115 = ADVANCED_FACE ( 'NONE', ( #112, #134 ), #31, .T. ) ;
#116 = DIRECTION ( 'NONE',  ( 0.000000000000000000, 0.000000000000000000, 1.000000000000000000 ) ) ;
#117 = CIRCLE ( 'NONE', #70, 8.999999999999996447 ) ;
#118 = DIRECTION ( 'NONE',  ( -1.000000000000000000, -0.000000000000000000, -0.000000000000000000 ) ) ;
#119 = EDGE_CURVE ( 'NONE', #75, #75, #215, .T. ) ;
#120 = DIRECTION ( 'NONE',  ( 0.000000000000000000, 0.000000000000000000, 1.000000000000000000 ) ) ;
#121 = DIRECTION ( 'NONE',  ( -1.000000000000000000, -0.000000000000000000, -0.000000000000000000 ) ) ;
#122 = DIRECTION ( 'NONE',  ( -1.000000000000000000, -0.000000000000000000, -0.000000000000000000 ) ) ;
#123 = PRODUCT ( '76.04.04.0011', '76.04.04.0011', '', ( #205 ) ) ;
#124 = DIRECTION ( 'NONE',  ( 1.000000000000000000, 0.000000000000000000, 0.000000000000000000 ) ) ;
#125 = PRESENTATION_LAYER_ASSIGNMENT (  '', '', ( #59 ) ) ;
#126 = EDGE_LOOP ( 'NONE', ( #82 ) ) ;
#127 = CARTESIAN_POINT ( 'NONE',  ( 0.000000000000000000, 0.000000000000000000, 0.000000000000000000 ) ) ;
#128 = EDGE_LOOP ( 'NONE', ( #62 ) ) ;
#129 = ORIENTED_EDGE ( 'NONE', *, *, #188, .F. ) ;
#130 = CIRCLE ( 'NONE', #241, 10.49999999999999822 ) ;
#131 = DIRECTION ( 'NONE',  ( -1.000000000000000000, -0.000000000000000000, -0.000000000000000000 ) ) ;
#132 = AXIS2_PLACEMENT_3D ( 'NONE', #138, #255, #54 ) ;
#133 = FACE_BOUND ( 'NONE', #43, .T. ) ;
#134 = FACE_OUTER_BOUND ( 'NONE', #126, .T. ) ;
#135 = DIRECTION ( 'NONE',  ( 0.000000000000000000, 0.000000000000000000, 1.000000000000000000 ) ) ;
#136 = CARTESIAN_POINT ( 'NONE',  ( 42.00000000000000000, 12.50000000000000178, 0.000000000000000000 ) ) ;
#137 = AXIS2_PLACEMENT_3D ( 'NONE', #192, #46, #171 ) ;
#138 = CARTESIAN_POINT ( 'NONE',  ( 0.000000000000000000, 0.000000000000000000, 0.000000000000000000 ) ) ;
#139 = MANIFOLD_SOLID_BREP ( 'Revolve2', #26 ) ;
#140 = VERTEX_POINT ( 'NONE', #104 ) ;
#141 = FACE_OUTER_BOUND ( 'NONE', #50, .T. ) ;
#142 = CARTESIAN_POINT ( 'NONE',  ( 1.499999999999999556, 0.000000000000000000, 0.000000000000000000 ) ) ;
#143 = CARTESIAN_POINT ( 'NONE',  ( 45.50000000000001421, 0.000000000000000000, 0.000000000000000000 ) ) ;
#144 = SHAPE_DEFINITION_REPRESENTATION ( #185, #87 ) ;
#145 = CIRCLE ( 'NONE', #164, 6.500000000000000000 ) ;
#146 =( LENGTH_UNIT ( ) NAMED_UNIT ( * ) SI_UNIT ( .MILLI., .METRE. ) );
#147 =( NAMED_UNIT ( * ) SI_UNIT ( $, .STERADIAN. ) SOLID_ANGLE_UNIT ( ) );
#148 = ADVANCED_FACE ( 'NONE', ( #219, #15 ), #251, .T. ) ;
#149 = FACE_BOUND ( 'NONE', #244, .T. ) ;
#150 = CIRCLE ( 'NONE', #182, 8.999999999999998224 ) ;
#151 =( LENGTH_UNIT ( ) NAMED_UNIT ( * ) SI_UNIT ( .MILLI., .METRE. ) );
#152 = EDGE_CURVE ( 'NONE', #20, #20, #80, .T. ) ;
#153 = VERTEX_POINT ( 'NONE', #101 ) ;
#154 = AXIS2_PLACEMENT_3D ( 'NONE', #218, #217, #76 ) ;
#155 = UNCERTAINTY_MEASURE_WITH_UNIT (LENGTH_MEASURE( 1.000000000000000082E-05 ), #249, 'distance_accuracy_value', 'NONE');
#156 = DIRECTION ( 'NONE',  ( -1.000000000000000000, -0.000000000000000000, -0.000000000000000000 ) ) ;
#157 = DIRECTION ( 'NONE',  ( -1.000000000000000000, -0.000000000000000000, -0.000000000000000000 ) ) ;
#158 = EDGE_CURVE ( 'NONE', #140, #140, #193, .T. ) ;
#159 = DIRECTION ( 'NONE',  ( 1.000000000000000000, 0.000000000000000000, 0.000000000000000000 ) ) ;
#160 = CARTESIAN_POINT ( 'NONE',  ( 45.50000000000001421, 0.000000000000000000, 10.49999999999999822 ) ) ;
#161 = EDGE_CURVE ( 'NONE', #224, #224, #3, .T. ) ;
#162 = ORIENTED_EDGE ( 'NONE', *, *, #222, .F. ) ;
#163 = UNCERTAINTY_MEASURE_WITH_UNIT (LENGTH_MEASURE( 1.000000000000000082E-05 ), #146, 'distance_accuracy_value', 'NONE');
#164 = AXIS2_PLACEMENT_3D ( 'NONE', #69, #89, #253 ) ;
#165 = MECHANICAL_DESIGN_GEOMETRIC_PRESENTATION_REPRESENTATION (  '', ( #47 ), #208 ) ;
#166 = EDGE_CURVE ( 'NONE', #6, #6, #150, .T. ) ;
#167 = CARTESIAN_POINT ( 'NONE',  ( -1.946448829403248536E-16, 0.000000000000000000, 8.133974596215555408 ) ) ;
#168 = ORIENTED_EDGE ( 'NONE', *, *, #188, .T. ) ;
#169 = ORIENTED_EDGE ( 'NONE', *, *, #96, .F. ) ;
#170 = AXIS2_PLACEMENT_3D ( 'NONE', #197, #159, #16 ) ;
#171 = DIRECTION ( 'NONE',  ( -0.000000000000000000, 0.000000000000000000, 1.000000000000000000 ) ) ;
#172 = EDGE_CURVE ( 'NONE', #8, #8, #117, .T. ) ;
#173 = DIRECTION ( 'NONE',  ( 0.000000000000000000, 0.000000000000000000, 1.000000000000000000 ) ) ;
#174 = CIRCLE ( 'NONE', #55, 12.50000000000000178 ) ;
#175 = ADVANCED_FACE ( 'NONE', ( #18, #56 ), #102, .T. ) ;
#176 = PRESENTATION_STYLE_ASSIGNMENT (( #91 ) ) ;
#177 = PLANE ( 'NONE',  #51 ) ;
#178 = VERTEX_POINT ( 'NONE', #38 ) ;
#179 = AXIS2_PLACEMENT_3D ( 'NONE', #191, #118, #114 ) ;
#180 = CARTESIAN_POINT ( 'NONE',  ( 43.50000000000001421, 0.000000000000000000, 0.000000000000000000 ) ) ;
#181 = DIRECTION ( 'NONE',  ( 0.000000000000000000, 0.000000000000000000, 1.000000000000000000 ) ) ;
#182 = AXIS2_PLACEMENT_3D ( 'NONE', #33, #259, #57 ) ;
#183 = CARTESIAN_POINT ( 'NONE',  ( 42.00000000000000000, 0.000000000000000000, 9.000000000000001776 ) ) ;
#184 = EDGE_LOOP ( 'NONE', ( #169 ) ) ;
#185 = PRODUCT_DEFINITION_SHAPE ( 'NONE', 'NONE',  #213 ) ;
#186 = VERTEX_POINT ( 'NONE', #183 ) ;
#187 = ORIENTED_EDGE ( 'NONE', *, *, #161, .F. ) ;
#188 = EDGE_CURVE ( 'NONE', #228, #228, #130, .T. ) ;
#189 = EDGE_LOOP ( 'NONE', ( #129 ) ) ;
#190 = CONICAL_SURFACE ( 'NONE', #235, 10.49999999999999822, 0.7853981633974482790 ) ;
#191 = CARTESIAN_POINT ( 'NONE',  ( 0.000000000000000000, 0.000000000000000000, 0.000000000000000000 ) ) ;
#192 = CARTESIAN_POINT ( 'NONE',  ( 4.150000000000005684, 8.999999999999996447, 0.000000000000000000 ) ) ;
#193 = CIRCLE ( 'NONE', #30, 6.500000000000000000 ) ;
#194 = ORIENTED_EDGE ( 'NONE', *, *, #222, .T. ) ;
#195 = CARTESIAN_POINT ( 'NONE',  ( 4.150000000000005684, 0.000000000000000000, 0.000000000000000000 ) ) ;
#196 = PRODUCT_DEFINITION_CONTEXT ( 'detailed design', #99, 'design' ) ;
#197 = CARTESIAN_POINT ( 'NONE',  ( -9.732244147016242680E-17, 8.133974596215555408, 0.000000000000000000 ) ) ;
#198 = CARTESIAN_POINT ( 'NONE',  ( 0.000000000000000000, 0.000000000000000000, 0.000000000000000000 ) ) ;
#199 = COLOUR_RGB ( '',0.8274509803921568096, 0.8392156862745098200, 0.8274509803921568096 ) ;
#200 = PRESENTATION_LAYER_ASSIGNMENT (  '', '', ( #47 ) ) ;
#201 = DIRECTION ( 'NONE',  ( 0.000000000000000000, 0.000000000000000000, 1.000000000000000000 ) ) ;
#202 = PLANE ( 'NONE',  #13 ) ;
#203 =( NAMED_UNIT ( * ) PLANE_ANGLE_UNIT ( ) SI_UNIT ( $, .RADIAN. ) );
#204 = UNCERTAINTY_MEASURE_WITH_UNIT (LENGTH_MEASURE( 1.000000000000000082E-05 ), #151, 'distance_accuracy_value', 'NONE');
#205 = PRODUCT_CONTEXT ( 'NONE', #108, 'mechanical' ) ;
#206 = ADVANCED_FACE ( 'NONE', ( #77 ), #202, .F. ) ;
#207 = AXIS2_PLACEMENT_3D ( 'NONE', #233, #90, #135 ) ;
#208 =( GEOMETRIC_REPRESENTATION_CONTEXT ( 3 ) GLOBAL_UNCERTAINTY_ASSIGNED_CONTEXT ( ( #163 ) ) GLOBAL_UNIT_ASSIGNED_CONTEXT ( ( #146, #203, #147 ) ) REPRESENTATION_CONTEXT ( 'NONE', 'WORKASPACE' ) );
#209 = DIRECTION ( 'NONE',  ( 1.000000000000000000, 0.000000000000000000, 0.000000000000000000 ) ) ;
#210 = FACE_OUTER_BOUND ( 'NONE', #42, .T. ) ;
#211 = FILL_AREA_STYLE ('',( #11 ) ) ;
#212 = ORIENTED_EDGE ( 'NONE', *, *, #119, .T. ) ;
#213 = PRODUCT_DEFINITION ( 'UNKNOWN', '', #35, #196 ) ;
#214 = EDGE_LOOP ( 'NONE', ( #234 ) ) ;
#215 = CIRCLE ( 'NONE', #207, 8.999999999999996447 ) ;
#216 = FACE_BOUND ( 'NONE', #248, .T. ) ;
#217 = DIRECTION ( 'NONE',  ( -1.000000000000000000, -0.000000000000000000, -0.000000000000000000 ) ) ;
#218 = CARTESIAN_POINT ( 'NONE',  ( 42.00000000000000000, 0.000000000000000000, 0.000000000000000000 ) ) ;
#219 = FACE_OUTER_BOUND ( 'NONE', #225, .T. ) ;
#220 = AXIS2_PLACEMENT_3D ( 'NONE', #198, #121, #181 ) ;
#221 = FACE_OUTER_BOUND ( 'NONE', #226, .T. ) ;
#222 = EDGE_CURVE ( 'NONE', #186, #186, #21, .T. ) ;
#223 = DIRECTION ( 'NONE',  ( 0.000000000000000000, 0.000000000000000000, 1.000000000000000000 ) ) ;
#224 = VERTEX_POINT ( 'NONE', #167 ) ;
#225 = EDGE_LOOP ( 'NONE', ( #252 ) ) ;
#226 = EDGE_LOOP ( 'NONE', ( #105 ) ) ;
#227 = AXIS2_PLACEMENT_3D ( 'NONE', #136, #25, #88 ) ;
#228 = VERTEX_POINT ( 'NONE', #160 ) ;
#229 = ORIENTED_EDGE ( 'NONE', *, *, #166, .T. ) ;
#230 = FACE_OUTER_BOUND ( 'NONE', #58, .T. ) ;
#231 = AXIS2_PLACEMENT_3D ( 'NONE', #180, #157, #260 ) ;
#232 = FACE_OUTER_BOUND ( 'NONE', #86, .T. ) ;
#233 = CARTESIAN_POINT ( 'NONE',  ( 1.499999999999999556, 0.000000000000000000, 0.000000000000000000 ) ) ;
#234 = ORIENTED_EDGE ( 'NONE', *, *, #152, .F. ) ;
#235 = AXIS2_PLACEMENT_3D ( 'NONE', #27, #131, #173 ) ;
#236 = CARTESIAN_POINT ( 'NONE',  ( 1.499999999999999556, 0.000000000000000000, 8.999999999999996447 ) ) ;
#237 = DIRECTION ( 'NONE',  ( 1.000000000000000000, 0.000000000000000000, 0.000000000000000000 ) ) ;
#238 = FACE_OUTER_BOUND ( 'NONE', #110, .T. ) ;
#239 = ADVANCED_FACE ( 'NONE', ( #238 ), #39, .F. ) ;
#240 = CARTESIAN_POINT ( 'NONE',  ( 5.500000000000006217, 0.000000000000000000, 0.000000000000000000 ) ) ;
#241 = AXIS2_PLACEMENT_3D ( 'NONE', #143, #98, #223 ) ;
#242 = DIRECTION ( 'NONE',  ( 0.000000000000000000, 0.000000000000000000, 1.000000000000000000 ) ) ;
#243 = SURFACE_STYLE_USAGE ( .BOTH. , #61 ) ;
#244 = EDGE_LOOP ( 'NONE', ( #168 ) ) ;
#245 = ADVANCED_FACE ( 'NONE', ( #32, #141 ), #177, .F. ) ;
#246 =( NAMED_UNIT ( * ) PLANE_ANGLE_UNIT ( ) SI_UNIT ( $, .RADIAN. ) );
#247 = ORIENTED_EDGE ( 'NONE', *, *, #161, .T. ) ;
#248 = EDGE_LOOP ( 'NONE', ( #4 ) ) ;
#249 =( LENGTH_UNIT ( ) NAMED_UNIT ( * ) SI_UNIT ( .MILLI., .METRE. ) );
#250 = AXIS2_PLACEMENT_3D ( 'NONE', #142, #124, #52 ) ;
#251 = CYLINDRICAL_SURFACE ( 'NONE', #132, 8.999999999999996447 ) ;
#252 = ORIENTED_EDGE ( 'NONE', *, *, #119, .F. ) ;
#253 = DIRECTION ( 'NONE',  ( 0.000000000000000000, 0.000000000000000000, 1.000000000000000000 ) ) ;
#254 = CARTESIAN_POINT ( 'NONE',  ( 42.00000000000000000, 0.000000000000000000, 0.000000000000000000 ) ) ;
#255 = DIRECTION ( 'NONE',  ( -1.000000000000000000, -0.000000000000000000, -0.000000000000000000 ) ) ;
#256 = DIRECTION ( 'NONE',  ( -1.000000000000000000, -0.000000000000000000, -0.000000000000000000 ) ) ;
#257 = DIRECTION ( 'NONE',  ( -0.000000000000000000, 0.000000000000000000, 1.000000000000000000 ) ) ;
#258 = ADVANCED_FACE ( 'NONE', ( #19, #221 ), #100, .T. ) ;
#259 = DIRECTION ( 'NONE',  ( -1.000000000000000000, -0.000000000000000000, -0.000000000000000000 ) ) ;
#260 = DIRECTION ( 'NONE',  ( 0.000000000000000000, 0.000000000000000000, 1.000000000000000000 ) ) ;
ENDSEC;
END-ISO-10303-21;
