ISO-10303-21;
HEADER;
FILE_DESCRIPTION (( 'STEP AP214' ),
    '1' );
FILE_NAME ('76.04.04.0010.step',
    '2021-04-02T18:04:43',
    ( '' ),
    ( '' ),
    'SwSTEP 2.0',
    'SolidWorks 2021',
    '' );
FILE_SCHEMA (( 'AUTOMOTIVE_DESIGN' ));
ENDSEC;

DATA;
#1 = EDGE_LOOP ( 'NONE', ( #96 ) ) ;
#2 = CARTESIAN_POINT ( 'NONE',  ( 1.499999999999999112, 0.000000000000000000, 0.000000000000000000 ) ) ;
#3 = CARTESIAN_POINT ( 'NONE',  ( -2.168404344971008868E-16, 11.63397459621555363, 0.000000000000000000 ) ) ;
#4 = CARTESIAN_POINT ( 'NONE',  ( 6.499999999999999112, 9.000000000000000000, 0.000000000000000000 ) ) ;
#5 = ADVANCED_FACE ( 'NONE', ( #216, #77 ), #31, .T. ) ;
#6 = DIRECTION ( 'NONE',  ( 0.000000000000000000, 0.000000000000000000, 1.000000000000000000 ) ) ;
#7 = CARTESIAN_POINT ( 'NONE',  ( 57.00000000000000000, 17.00000000000000000, 0.000000000000000000 ) ) ;
#8 = CARTESIAN_POINT ( 'NONE',  ( 4.699999999999999289, 0.000000000000000000, 9.000000000000000000 ) ) ;
#9 = CARTESIAN_POINT ( 'NONE',  ( 0.000000000000000000, 0.000000000000000000, 0.000000000000000000 ) ) ;
#10 = CARTESIAN_POINT ( 'NONE',  ( 6.499999999999999112, 0.000000000000000000, 12.49999999999999645 ) ) ;
#11 = ADVANCED_FACE ( 'NONE', ( #117, #106 ), #81, .T. ) ;
#12 = SHAPE_DEFINITION_REPRESENTATION ( #114, #244 ) ;
#13 =( NAMED_UNIT ( * ) SI_UNIT ( $, .STERADIAN. ) SOLID_ANGLE_UNIT ( ) );
#14 = EDGE_LOOP ( 'NONE', ( #236 ) ) ;
#15 = AXIS2_PLACEMENT_3D ( 'NONE', #3, #82, #63 ) ;
#16 = SURFACE_STYLE_FILL_AREA ( #57 ) ;
#17 = EDGE_LOOP ( 'NONE', ( #112 ) ) ;
#18 = EDGE_LOOP ( 'NONE', ( #34 ) ) ;
#19 = ORIENTED_EDGE ( 'NONE', *, *, #91, .F. ) ;
#20 = DIRECTION ( 'NONE',  ( 0.000000000000000000, 0.000000000000000000, 1.000000000000000000 ) ) ;
#21 = CARTESIAN_POINT ( 'NONE',  ( 1.499999999999999112, 0.000000000000000000, 0.000000000000000000 ) ) ;
#22 = CIRCLE ( 'NONE', #251, 17.00000000000000000 ) ;
#23 = DIRECTION ( 'NONE',  ( -1.000000000000000000, -0.000000000000000000, -0.000000000000000000 ) ) ;
#24 = EDGE_CURVE ( 'NONE', #86, #86, #125, .T. ) ;
#25 = CYLINDRICAL_SURFACE ( 'NONE', #215, 12.49999999999999822 ) ;
#26 = DIRECTION ( 'NONE',  ( 0.000000000000000000, 0.000000000000000000, 1.000000000000000000 ) ) ;
#27 = CARTESIAN_POINT ( 'NONE',  ( 4.699999999999999289, 0.000000000000000000, 0.000000000000000000 ) ) ;
#28 = AXIS2_PLACEMENT_3D ( 'NONE', #105, #183, #78 ) ;
#29 = PLANE ( 'NONE',  #94 ) ;
#30 = DIRECTION ( 'NONE',  ( -1.000000000000000000, -0.000000000000000000, -0.000000000000000000 ) ) ;
#31 = CONICAL_SURFACE ( 'NONE', #107, 15.00000000000000888, 0.7853981633974471688 ) ;
#32 = UNCERTAINTY_MEASURE_WITH_UNIT (LENGTH_MEASURE( 1.000000000000000082E-05 ), #259, 'distance_accuracy_value', 'NONE');
#33 = EDGE_LOOP ( 'NONE', ( #256 ) ) ;
#34 = ORIENTED_EDGE ( 'NONE', *, *, #198, .F. ) ;
#35 = PRODUCT_DEFINITION_CONTEXT ( 'detailed design', #58, 'design' ) ;
#36 = AXIS2_PLACEMENT_3D ( 'NONE', #142, #223, #162 ) ;
#37 = EDGE_LOOP ( 'NONE', ( #134 ) ) ;
#38 = EDGE_LOOP ( 'NONE', ( #53 ) ) ;
#39 = COLOUR_RGB ( '',0.8274509803921568096, 0.8392156862745098200, 0.8274509803921568096 ) ;
#40 = DIRECTION ( 'NONE',  ( 0.000000000000000000, 0.000000000000000000, 1.000000000000000000 ) ) ;
#41 = FACE_OUTER_BOUND ( 'NONE', #18, .T. ) ;
#42 = FACE_OUTER_BOUND ( 'NONE', #37, .T. ) ;
#43 = DIRECTION ( 'NONE',  ( 0.000000000000000000, 0.000000000000000000, 1.000000000000000000 ) ) ;
#44 = ADVANCED_FACE ( 'NONE', ( #41, #227 ), #25, .T. ) ;
#45 = CARTESIAN_POINT ( 'NONE',  ( 6.499999999999999112, 0.000000000000000000, 0.000000000000000000 ) ) ;
#46 = APPLICATION_CONTEXT ( 'automotive_design' ) ;
#47 = CARTESIAN_POINT ( 'NONE',  ( 60.50000000000000000, 0.000000000000000000, 17.00000000000000355 ) ) ;
#48 = DIRECTION ( 'NONE',  ( -1.000000000000000000, -0.000000000000000000, -0.000000000000000000 ) ) ;
#49 = VERTEX_POINT ( 'NONE', #129 ) ;
#50 = EDGE_CURVE ( 'NONE', #230, #230, #22, .T. ) ;
#51 = CARTESIAN_POINT ( 'NONE',  ( 4.699999999999999289, 0.000000000000000000, 12.49999999999999645 ) ) ;
#52 = CLOSED_SHELL ( 'NONE', ( #203, #5, #11, #258, #44, #138, #228, #131, #238, #97, #181 ) ) ;
#53 = ORIENTED_EDGE ( 'NONE', *, *, #59, .F. ) ;
#54 =( NAMED_UNIT ( * ) PLANE_ANGLE_UNIT ( ) SI_UNIT ( $, .RADIAN. ) );
#55 = ORIENTED_EDGE ( 'NONE', *, *, #50, .F. ) ;
#56 = STYLED_ITEM ( 'NONE', ( #192 ), #244 ) ;
#57 = FILL_AREA_STYLE ('',( #211 ) ) ;
#58 = APPLICATION_CONTEXT ( 'automotive_design' ) ;
#59 = EDGE_CURVE ( 'NONE', #185, #185, #130, .T. ) ;
#60 = PLANE ( 'NONE',  #226 ) ;
#61 = STYLED_ITEM ( 'NONE', ( #147 ), #224 ) ;
#62 = DIRECTION ( 'NONE',  ( -0.000000000000000000, 0.000000000000000000, 1.000000000000000000 ) ) ;
#63 = DIRECTION ( 'NONE',  ( 0.000000000000000000, 0.000000000000000000, -1.000000000000000000 ) ) ;
#64 = CARTESIAN_POINT ( 'NONE',  ( -4.336808689942017736E-16, 0.000000000000000000, 0.000000000000000000 ) ) ;
#65 = AXIS2_PLACEMENT_3D ( 'NONE', #243, #201, #62 ) ;
#66 = DIRECTION ( 'NONE',  ( -1.000000000000000000, -0.000000000000000000, -0.000000000000000000 ) ) ;
#67 = FACE_OUTER_BOUND ( 'NONE', #240, .T. ) ;
#68 = FACE_OUTER_BOUND ( 'NONE', #218, .T. ) ;
#69 = SURFACE_STYLE_USAGE ( .BOTH. , #150 ) ;
#70 = AXIS2_PLACEMENT_3D ( 'NONE', #21, #66, #194 ) ;
#71 = PRESENTATION_LAYER_ASSIGNMENT (  '', '', ( #56 ) ) ;
#72 = CARTESIAN_POINT ( 'NONE',  ( 57.00000000000000000, 0.000000000000000000, 12.50000000000000000 ) ) ;
#73 = COLOUR_RGB ( '',0.8274509803921568096, 0.8392156862745098200, 0.8274509803921568096 ) ;
#74 = EDGE_LOOP ( 'NONE', ( #75 ) ) ;
#75 = ORIENTED_EDGE ( 'NONE', *, *, #76, .F. ) ;
#76 = EDGE_CURVE ( 'NONE', #253, #253, #89, .T. ) ;
#77 = FACE_BOUND ( 'NONE', #100, .T. ) ;
#78 = DIRECTION ( 'NONE',  ( 0.000000000000000000, 0.000000000000000000, 1.000000000000000000 ) ) ;
#79 = DIRECTION ( 'NONE',  ( -1.000000000000000000, -0.000000000000000000, -0.000000000000000000 ) ) ;
#80 = AXIS2_PLACEMENT_3D ( 'NONE', #2, #202, #158 ) ;
#81 = CYLINDRICAL_SURFACE ( 'NONE', #248, 17.00000000000000000 ) ;
#82 = DIRECTION ( 'NONE',  ( 1.000000000000000000, 0.000000000000000000, 0.000000000000000000 ) ) ;
#83 = FACE_OUTER_BOUND ( 'NONE', #98, .T. ) ;
#84 = CIRCLE ( 'NONE', #234, 11.63397459621555363 ) ;
#85 = CARTESIAN_POINT ( 'NONE',  ( 57.00000000000000000, 0.000000000000000000, 17.00000000000000000 ) ) ;
#86 = VERTEX_POINT ( 'NONE', #206 ) ;
#87 = VERTEX_POINT ( 'NONE', #149 ) ;
#88 = DIRECTION ( 'NONE',  ( 0.000000000000000000, 0.000000000000000000, -1.000000000000000000 ) ) ;
#89 = CIRCLE ( 'NONE', #156, 9.000000000000000000 ) ;
#90 = MECHANICAL_DESIGN_GEOMETRIC_PRESENTATION_REPRESENTATION (  '', ( #56 ), #252 ) ;
#91 = EDGE_CURVE ( 'NONE', #249, #249, #167, .T. ) ;
#92 = DIRECTION ( 'NONE',  ( 0.000000000000000000, 0.000000000000000000, 1.000000000000000000 ) ) ;
#93 = EDGE_LOOP ( 'NONE', ( #19 ) ) ;
#94 = AXIS2_PLACEMENT_3D ( 'NONE', #7, #168, #88 ) ;
#95 = AXIS2_PLACEMENT_3D ( 'NONE', #225, #208, #188 ) ;
#96 = ORIENTED_EDGE ( 'NONE', *, *, #165, .F. ) ;
#97 = ADVANCED_FACE ( 'NONE', ( #161, #220 ), #205, .T. ) ;
#98 = EDGE_LOOP ( 'NONE', ( #193 ) ) ;
#99 = AXIS2_PLACEMENT_3D ( 'NONE', #9, #164, #108 ) ;
#100 = EDGE_LOOP ( 'NONE', ( #157 ) ) ;
#101 = DIRECTION ( 'NONE',  ( -1.000000000000000000, -0.000000000000000000, -0.000000000000000000 ) ) ;
#102 = DIRECTION ( 'NONE',  ( 0.000000000000000000, 0.000000000000000000, 1.000000000000000000 ) ) ;
#103 = AXIS2_PLACEMENT_3D ( 'NONE', #221, #23, #20 ) ;
#104 = CARTESIAN_POINT ( 'NONE',  ( 57.00000000000000000, 0.000000000000000000, 0.000000000000000000 ) ) ;
#105 = CARTESIAN_POINT ( 'NONE',  ( 4.699999999999999289, 0.000000000000000000, 0.000000000000000000 ) ) ;
#106 = FACE_OUTER_BOUND ( 'NONE', #33, .T. ) ;
#107 = AXIS2_PLACEMENT_3D ( 'NONE', #115, #175, #260 ) ;
#108 = DIRECTION ( 'NONE',  ( 0.000000000000000000, 0.000000000000000000, 1.000000000000000000 ) ) ;
#109 = SURFACE_STYLE_FILL_AREA ( #250 ) ;
#110 = DIRECTION ( 'NONE',  ( 0.000000000000000000, 0.000000000000000000, 1.000000000000000000 ) ) ;
#111 = EDGE_LOOP ( 'NONE', ( #219 ) ) ;
#112 = ORIENTED_EDGE ( 'NONE', *, *, #165, .T. ) ;
#113 = CIRCLE ( 'NONE', #36, 12.49999999999999645 ) ;
#114 = PRODUCT_DEFINITION_SHAPE ( 'NONE', 'NONE',  #187 ) ;
#115 = CARTESIAN_POINT ( 'NONE',  ( 62.50000000000000000, 0.000000000000000000, 0.000000000000000000 ) ) ;
#116 = AXIS2_PLACEMENT_3D ( 'NONE', #254, #30, #110 ) ;
#117 = FACE_OUTER_BOUND ( 'NONE', #212, .T. ) ;
#118 = PRODUCT ( '76.04.04.0010', '76.04.04.0010', '', ( #191 ) ) ;
#119 = DIRECTION ( 'NONE',  ( 0.000000000000000000, 0.000000000000000000, 1.000000000000000000 ) ) ;
#120 = DIRECTION ( 'NONE',  ( -1.000000000000000000, -0.000000000000000000, -0.000000000000000000 ) ) ;
#121 = MECHANICAL_DESIGN_GEOMETRIC_PRESENTATION_REPRESENTATION (  '', ( #61 ), #209 ) ;
#122 = DIRECTION ( 'NONE',  ( -1.000000000000000000, -0.000000000000000000, -0.000000000000000000 ) ) ;
#123 = DIRECTION ( 'NONE',  ( -1.000000000000000000, -0.000000000000000000, -0.000000000000000000 ) ) ;
#124 = FILL_AREA_STYLE_COLOUR ( '', #73 ) ;
#125 = CIRCLE ( 'NONE', #70, 12.49999999999999645 ) ;
#126 = CYLINDRICAL_SURFACE ( 'NONE', #99, 9.000000000000000000 ) ;
#127 = DIRECTION ( 'NONE',  ( 0.000000000000000000, 0.000000000000000000, 1.000000000000000000 ) ) ;
#128 = VERTEX_POINT ( 'NONE', #10 ) ;
#129 = CARTESIAN_POINT ( 'NONE',  ( -4.336808689942017736E-16, 0.000000000000000000, 11.63397459621555363 ) ) ;
#130 = CIRCLE ( 'NONE', #28, 9.000000000000000000 ) ;
#131 = ADVANCED_FACE ( 'NONE', ( #241, #197 ), #180, .F. ) ;
#132 = DIRECTION ( 'NONE',  ( 1.000000000000000000, 0.000000000000000000, 0.000000000000000000 ) ) ;
#133 = ORIENTED_EDGE ( 'NONE', *, *, #144, .F. ) ;
#134 = ORIENTED_EDGE ( 'NONE', *, *, #198, .T. ) ;
#135 = EDGE_LOOP ( 'NONE', ( #133 ) ) ;
#136 = AXIS2_PLACEMENT_3D ( 'NONE', #154, #92, #132 ) ;
#137 = SURFACE_STYLE_USAGE ( .BOTH. , #173 ) ;
#138 = ADVANCED_FACE ( 'NONE', ( #196, #42 ), #60, .F. ) ;
#139 = EDGE_LOOP ( 'NONE', ( #172 ) ) ;
#140 = DIRECTION ( 'NONE',  ( 0.000000000000000000, 0.000000000000000000, -1.000000000000000000 ) ) ;
#141 = DIRECTION ( 'NONE',  ( 1.000000000000000000, 0.000000000000000000, 0.000000000000000000 ) ) ;
#142 = CARTESIAN_POINT ( 'NONE',  ( 6.499999999999999112, 0.000000000000000000, 0.000000000000000000 ) ) ;
#143 = PLANE ( 'NONE',  #95 ) ;
#144 = EDGE_CURVE ( 'NONE', #87, #87, #231, .T. ) ;
#145 = AXIS2_PLACEMENT_3D ( 'NONE', #177, #163, #26 ) ;
#146 = DIRECTION ( 'NONE',  ( -1.000000000000000000, -0.000000000000000000, -0.000000000000000000 ) ) ;
#147 = PRESENTATION_STYLE_ASSIGNMENT (( #69 ) ) ;
#148 = CYLINDRICAL_SURFACE ( 'NONE', #116, 12.49999999999999645 ) ;
#149 = CARTESIAN_POINT ( 'NONE',  ( 62.50000000000000000, 0.000000000000000000, 15.00000000000000888 ) ) ;
#150 = SURFACE_SIDE_STYLE ('',( #109 ) ) ;
#151 =( GEOMETRIC_REPRESENTATION_CONTEXT ( 3 ) GLOBAL_UNCERTAINTY_ASSIGNED_CONTEXT ( ( #32 ) ) GLOBAL_UNIT_ASSIGNED_CONTEXT ( ( #259, #214, #13 ) ) REPRESENTATION_CONTEXT ( 'NONE', 'WORKASPACE' ) );
#152 = ORIENTED_EDGE ( 'NONE', *, *, #222, .F. ) ;
#153 = EDGE_LOOP ( 'NONE', ( #239 ) ) ;
#154 = CARTESIAN_POINT ( 'NONE',  ( 0.000000000000000000, 0.000000000000000000, 0.000000000000000000 ) ) ;
#155 = EDGE_LOOP ( 'NONE', ( #235 ) ) ;
#156 = AXIS2_PLACEMENT_3D ( 'NONE', #45, #79, #43 ) ;
#157 = ORIENTED_EDGE ( 'NONE', *, *, #144, .T. ) ;
#158 = DIRECTION ( 'NONE',  ( 0.000000000000000000, 0.000000000000000000, -1.000000000000000000 ) ) ;
#159 = CARTESIAN_POINT ( 'NONE',  ( 0.000000000000000000, 0.000000000000000000, 0.000000000000000000 ) ) ;
#160 = UNCERTAINTY_MEASURE_WITH_UNIT (LENGTH_MEASURE( 1.000000000000000082E-05 ), #255, 'distance_accuracy_value', 'NONE');
#161 = FACE_BOUND ( 'NONE', #14, .T. ) ;
#162 = DIRECTION ( 'NONE',  ( 0.000000000000000000, 0.000000000000000000, 1.000000000000000000 ) ) ;
#163 = DIRECTION ( 'NONE',  ( -1.000000000000000000, -0.000000000000000000, -0.000000000000000000 ) ) ;
#164 = DIRECTION ( 'NONE',  ( -1.000000000000000000, -0.000000000000000000, -0.000000000000000000 ) ) ;
#165 = EDGE_CURVE ( 'NONE', #166, #166, #237, .T. ) ;
#166 = VERTEX_POINT ( 'NONE', #72 ) ;
#167 = CIRCLE ( 'NONE', #145, 17.00000000000000355 ) ;
#168 = DIRECTION ( 'NONE',  ( 1.000000000000000000, 0.000000000000000000, 0.000000000000000000 ) ) ;
#169 = EDGE_CURVE ( 'NONE', #49, #49, #84, .T. ) ;
#170 = FACE_OUTER_BOUND ( 'NONE', #155, .T. ) ;
#171 = AXIS2_PLACEMENT_3D ( 'NONE', #27, #48, #127 ) ;
#172 = ORIENTED_EDGE ( 'NONE', *, *, #24, .T. ) ;
#173 = SURFACE_SIDE_STYLE ('',( #16 ) ) ;
#174 = ORIENTED_EDGE ( 'NONE', *, *, #76, .T. ) ;
#175 = DIRECTION ( 'NONE',  ( -1.000000000000000000, -0.000000000000000000, -0.000000000000000000 ) ) ;
#176 = PRODUCT_RELATED_PRODUCT_CATEGORY ( 'part', '', ( #118 ) ) ;
#177 = CARTESIAN_POINT ( 'NONE',  ( 60.50000000000000000, 0.000000000000000000, 0.000000000000000000 ) ) ;
#178 = PLANE ( 'NONE',  #15 ) ;
#179 = PRESENTATION_LAYER_ASSIGNMENT (  '', '', ( #61 ) ) ;
#180 = PLANE ( 'NONE',  #65 ) ;
#181 = ADVANCED_FACE ( 'NONE', ( #83 ), #178, .F. ) ;
#182 = CARTESIAN_POINT ( 'NONE',  ( 0.000000000000000000, 0.000000000000000000, 0.000000000000000000 ) ) ;
#183 = DIRECTION ( 'NONE',  ( -1.000000000000000000, -0.000000000000000000, -0.000000000000000000 ) ) ;
#184 = FACE_OUTER_BOUND ( 'NONE', #111, .T. ) ;
#185 = VERTEX_POINT ( 'NONE', #8 ) ;
#186 = FACE_OUTER_BOUND ( 'NONE', #38, .T. ) ;
#187 = PRODUCT_DEFINITION ( 'UNKNOWN', '', #200, #35 ) ;
#188 = DIRECTION ( 'NONE',  ( -0.000000000000000000, 0.000000000000000000, 1.000000000000000000 ) ) ;
#189 = APPLICATION_PROTOCOL_DEFINITION ( 'draft international standard', 'automotive_design', 1998, #58 ) ;
#190 = ORIENTED_EDGE ( 'NONE', *, *, #50, .T. ) ;
#191 = PRODUCT_CONTEXT ( 'NONE', #46, 'mechanical' ) ;
#192 = PRESENTATION_STYLE_ASSIGNMENT (( #137 ) ) ;
#193 = ORIENTED_EDGE ( 'NONE', *, *, #169, .T. ) ;
#194 = DIRECTION ( 'NONE',  ( 0.000000000000000000, 0.000000000000000000, 1.000000000000000000 ) ) ;
#195 = UNCERTAINTY_MEASURE_WITH_UNIT (LENGTH_MEASURE( 1.000000000000000082E-05 ), #207, 'distance_accuracy_value', 'NONE');
#196 = FACE_BOUND ( 'NONE', #74, .T. ) ;
#197 = FACE_BOUND ( 'NONE', #153, .T. ) ;
#198 = EDGE_CURVE ( 'NONE', #128, #128, #113, .T. ) ;
#199 = CIRCLE ( 'NONE', #171, 12.49999999999999645 ) ;
#200 = PRODUCT_DEFINITION_FORMATION_WITH_SPECIFIED_SOURCE ( 'ANY', '', #118, .NOT_KNOWN. ) ;
#201 = DIRECTION ( 'NONE',  ( -1.000000000000000000, 0.000000000000000000, -0.000000000000000000 ) ) ;
#202 = DIRECTION ( 'NONE',  ( 1.000000000000000000, 0.000000000000000000, 0.000000000000000000 ) ) ;
#203 = ADVANCED_FACE ( 'NONE', ( #246 ), #143, .F. ) ;
#204 =( NAMED_UNIT ( * ) SI_UNIT ( $, .STERADIAN. ) SOLID_ANGLE_UNIT ( ) );
#205 = CONICAL_SURFACE ( 'NONE', #80, 12.49999999999999645, 0.5235987755983010361 ) ;
#206 = CARTESIAN_POINT ( 'NONE',  ( 1.499999999999999112, 0.000000000000000000, 12.49999999999999645 ) ) ;
#207 =( LENGTH_UNIT ( ) NAMED_UNIT ( * ) SI_UNIT ( .MILLI., .METRE. ) );
#208 = DIRECTION ( 'NONE',  ( -1.000000000000000000, 0.000000000000000000, -0.000000000000000000 ) ) ;
#209 =( GEOMETRIC_REPRESENTATION_CONTEXT ( 3 ) GLOBAL_UNCERTAINTY_ASSIGNED_CONTEXT ( ( #195 ) ) GLOBAL_UNIT_ASSIGNED_CONTEXT ( ( #207, #229, #204 ) ) REPRESENTATION_CONTEXT ( 'NONE', 'WORKASPACE' ) );
#210 = FACE_BOUND ( 'NONE', #1, .T. ) ;
#211 = FILL_AREA_STYLE_COLOUR ( '', #39 ) ;
#212 = EDGE_LOOP ( 'NONE', ( #55 ) ) ;
#213 = EDGE_LOOP ( 'NONE', ( #152 ) ) ;
#214 =( NAMED_UNIT ( * ) PLANE_ANGLE_UNIT ( ) SI_UNIT ( $, .RADIAN. ) );
#215 = AXIS2_PLACEMENT_3D ( 'NONE', #182, #122, #102 ) ;
#216 = FACE_OUTER_BOUND ( 'NONE', #93, .T. ) ;
#217 = APPLICATION_PROTOCOL_DEFINITION ( 'draft international standard', 'automotive_design', 1998, #46 ) ;
#218 = EDGE_LOOP ( 'NONE', ( #174 ) ) ;
#219 = ORIENTED_EDGE ( 'NONE', *, *, #24, .F. ) ;
#220 = FACE_OUTER_BOUND ( 'NONE', #139, .T. ) ;
#221 = CARTESIAN_POINT ( 'NONE',  ( 57.00000000000000000, 0.000000000000000000, 0.000000000000000000 ) ) ;
#222 = EDGE_CURVE ( 'NONE', #233, #233, #199, .T. ) ;
#223 = DIRECTION ( 'NONE',  ( -1.000000000000000000, -0.000000000000000000, -0.000000000000000000 ) ) ;
#224 = MANIFOLD_SOLID_BREP ( 'Revolve2', #52 ) ;
#225 = CARTESIAN_POINT ( 'NONE',  ( 62.50000000000000000, 0.000000000000000000, 0.000000000000000000 ) ) ;
#226 = AXIS2_PLACEMENT_3D ( 'NONE', #4, #141, #140 ) ;
#227 = FACE_OUTER_BOUND ( 'NONE', #17, .T. ) ;
#228 = ADVANCED_FACE ( 'NONE', ( #186, #68 ), #126, .T. ) ;
#229 =( NAMED_UNIT ( * ) PLANE_ANGLE_UNIT ( ) SI_UNIT ( $, .RADIAN. ) );
#230 = VERTEX_POINT ( 'NONE', #85 ) ;
#231 = CIRCLE ( 'NONE', #242, 15.00000000000000888 ) ;
#232 = CARTESIAN_POINT ( 'NONE',  ( 6.499999999999999112, 0.000000000000000000, 9.000000000000000000 ) ) ;
#233 = VERTEX_POINT ( 'NONE', #51 ) ;
#234 = AXIS2_PLACEMENT_3D ( 'NONE', #64, #146, #245 ) ;
#235 = ORIENTED_EDGE ( 'NONE', *, *, #222, .T. ) ;
#236 = ORIENTED_EDGE ( 'NONE', *, *, #169, .F. ) ;
#237 = CIRCLE ( 'NONE', #103, 12.50000000000000000 ) ;
#238 = ADVANCED_FACE ( 'NONE', ( #184, #170 ), #148, .T. ) ;
#239 = ORIENTED_EDGE ( 'NONE', *, *, #59, .T. ) ;
#240 = EDGE_LOOP ( 'NONE', ( #190 ) ) ;
#241 = FACE_OUTER_BOUND ( 'NONE', #213, .T. ) ;
#242 = AXIS2_PLACEMENT_3D ( 'NONE', #247, #120, #6 ) ;
#243 = CARTESIAN_POINT ( 'NONE',  ( 4.699999999999999289, 12.49999999999999645, 0.000000000000000000 ) ) ;
#244 = ADVANCED_BREP_SHAPE_REPRESENTATION ( '76.04.04.0010', ( #224, #136 ), #151 ) ;
#245 = DIRECTION ( 'NONE',  ( 0.000000000000000000, 0.000000000000000000, 1.000000000000000000 ) ) ;
#246 = FACE_OUTER_BOUND ( 'NONE', #135, .T. ) ;
#247 = CARTESIAN_POINT ( 'NONE',  ( 62.50000000000000000, 0.000000000000000000, 0.000000000000000000 ) ) ;
#248 = AXIS2_PLACEMENT_3D ( 'NONE', #159, #101, #119 ) ;
#249 = VERTEX_POINT ( 'NONE', #47 ) ;
#250 = FILL_AREA_STYLE ('',( #124 ) ) ;
#251 = AXIS2_PLACEMENT_3D ( 'NONE', #104, #123, #40 ) ;
#252 =( GEOMETRIC_REPRESENTATION_CONTEXT ( 3 ) GLOBAL_UNCERTAINTY_ASSIGNED_CONTEXT ( ( #160 ) ) GLOBAL_UNIT_ASSIGNED_CONTEXT ( ( #255, #54, #257 ) ) REPRESENTATION_CONTEXT ( 'NONE', 'WORKASPACE' ) );
#253 = VERTEX_POINT ( 'NONE', #232 ) ;
#254 = CARTESIAN_POINT ( 'NONE',  ( 0.000000000000000000, 0.000000000000000000, 0.000000000000000000 ) ) ;
#255 =( LENGTH_UNIT ( ) NAMED_UNIT ( * ) SI_UNIT ( .MILLI., .METRE. ) );
#256 = ORIENTED_EDGE ( 'NONE', *, *, #91, .T. ) ;
#257 =( NAMED_UNIT ( * ) SI_UNIT ( $, .STERADIAN. ) SOLID_ANGLE_UNIT ( ) );
#258 = ADVANCED_FACE ( 'NONE', ( #210, #67 ), #29, .F. ) ;
#259 =( LENGTH_UNIT ( ) NAMED_UNIT ( * ) SI_UNIT ( .MILLI., .METRE. ) );
#260 = DIRECTION ( 'NONE',  ( 0.000000000000000000, 0.000000000000000000, 1.000000000000000000 ) ) ;
ENDSEC;
END-ISO-10303-21;
