ISO-10303-21;
HEADER;
FILE_DESCRIPTION (( 'STEP AP214' ),
    '1' );
FILE_NAME ('76.04.04.0009.step',
    '2021-04-02T18:04:40',
    ( '' ),
    ( '' ),
    'SwSTEP 2.0',
    'SolidWorks 2021',
    '' );
FILE_SCHEMA (( 'AUTOMOTIVE_DESIGN' ));
ENDSEC;

DATA;
#1 = DIRECTION ( 'NONE',  ( 1.000000000000000000, 0.000000000000000000, 0.000000000000000000 ) ) ;
#2 = DIRECTION ( 'NONE',  ( 0.000000000000000000, 0.000000000000000000, -1.000000000000000000 ) ) ;
#3 = CIRCLE ( 'NONE', #49, 14.00000000000000178 ) ;
#4 = FACE_BOUND ( 'NONE', #198, .T. ) ;
#5 = PRODUCT_CONTEXT ( 'NONE', #199, 'mechanical' ) ;
#6 = PRODUCT_RELATED_PRODUCT_CATEGORY ( 'part', '', ( #92 ) ) ;
#7 = AXIS2_PLACEMENT_3D ( 'NONE', #24, #154, #191 ) ;
#8 = SHAPE_DEFINITION_REPRESENTATION ( #163, #75 ) ;
#9 = ORIENTED_EDGE ( 'NONE', *, *, #190, .T. ) ;
#10 = SURFACE_STYLE_USAGE ( .BOTH. , #33 ) ;
#11 = ORIENTED_EDGE ( 'NONE', *, *, #187, .F. ) ;
#12 = EDGE_LOOP ( 'NONE', ( #216 ) ) ;
#13 =( NAMED_UNIT ( * ) PLANE_ANGLE_UNIT ( ) SI_UNIT ( $, .RADIAN. ) );
#14 = FACE_OUTER_BOUND ( 'NONE', #252, .T. ) ;
#15 = EDGE_LOOP ( 'NONE', ( #35 ) ) ;
#16 = ADVANCED_FACE ( 'NONE', ( #118, #158 ), #58, .T. ) ;
#17 = FACE_BOUND ( 'NONE', #121, .T. ) ;
#18 = AXIS2_PLACEMENT_3D ( 'NONE', #228, #192, #210 ) ;
#19 = DIRECTION ( 'NONE',  ( -1.000000000000000000, -0.000000000000000000, -0.000000000000000000 ) ) ;
#20 = UNCERTAINTY_MEASURE_WITH_UNIT (LENGTH_MEASURE( 1.000000000000000082E-05 ), #26, 'distance_accuracy_value', 'NONE');
#21 = DIRECTION ( 'NONE',  ( 0.000000000000000000, 0.000000000000000000, 1.000000000000000000 ) ) ;
#22 = CARTESIAN_POINT ( 'NONE',  ( 3.699999999999997957, 0.000000000000000000, 0.000000000000000000 ) ) ;
#23 = UNCERTAINTY_MEASURE_WITH_UNIT (LENGTH_MEASURE( 1.000000000000000082E-05 ), #238, 'distance_accuracy_value', 'NONE');
#24 = CARTESIAN_POINT ( 'NONE',  ( 0.000000000000000000, 0.000000000000000000, 0.000000000000000000 ) ) ;
#25 = PRODUCT_DEFINITION ( 'UNKNOWN', '', #57, #87 ) ;
#26 =( LENGTH_UNIT ( ) NAMED_UNIT ( * ) SI_UNIT ( .MILLI., .METRE. ) );
#27 = MECHANICAL_DESIGN_GEOMETRIC_PRESENTATION_REPRESENTATION (  '', ( #83 ), #64 ) ;
#28 =( NAMED_UNIT ( * ) PLANE_ANGLE_UNIT ( ) SI_UNIT ( $, .RADIAN. ) );
#29 = PLANE ( 'NONE',  #18 ) ;
#30 = ORIENTED_EDGE ( 'NONE', *, *, #60, .F. ) ;
#31 = AXIS2_PLACEMENT_3D ( 'NONE', #181, #102, #256 ) ;
#32 = DIRECTION ( 'NONE',  ( 0.000000000000000000, 0.000000000000000000, 1.000000000000000000 ) ) ;
#33 = SURFACE_SIDE_STYLE ('',( #76 ) ) ;
#34 = DIRECTION ( 'NONE',  ( -1.000000000000000000, -0.000000000000000000, -0.000000000000000000 ) ) ;
#35 = ORIENTED_EDGE ( 'NONE', *, *, #190, .F. ) ;
#36 = AXIS2_PLACEMENT_3D ( 'NONE', #243, #104, #21 ) ;
#37 = ORIENTED_EDGE ( 'NONE', *, *, #73, .T. ) ;
#38 = UNCERTAINTY_MEASURE_WITH_UNIT (LENGTH_MEASURE( 1.000000000000000082E-05 ), #251, 'distance_accuracy_value', 'NONE');
#39 = DIRECTION ( 'NONE',  ( 0.000000000000000000, 0.000000000000000000, 1.000000000000000000 ) ) ;
#40 = SURFACE_STYLE_USAGE ( .BOTH. , #168 ) ;
#41 = AXIS2_PLACEMENT_3D ( 'NONE', #22, #19, #142 ) ;
#42 = CARTESIAN_POINT ( 'NONE',  ( 46.00000000000000000, 0.000000000000000000, 0.000000000000000000 ) ) ;
#43 = DIRECTION ( 'NONE',  ( -1.000000000000000000, -0.000000000000000000, -0.000000000000000000 ) ) ;
#44 = CARTESIAN_POINT ( 'NONE',  ( 1.499999999999999556, 0.000000000000000000, 0.000000000000000000 ) ) ;
#45 = AXIS2_PLACEMENT_3D ( 'NONE', #48, #71, #230 ) ;
#46 = CARTESIAN_POINT ( 'NONE',  ( 3.699999999999997957, 0.000000000000000000, 8.750000000000000000 ) ) ;
#47 = CARTESIAN_POINT ( 'NONE',  ( 50.00000000000000000, 0.000000000000000000, 0.000000000000000000 ) ) ;
#48 = CARTESIAN_POINT ( 'NONE',  ( 3.699999999999997957, 9.999999999999996447, 0.000000000000000000 ) ) ;
#49 = AXIS2_PLACEMENT_3D ( 'NONE', #61, #81, #162 ) ;
#50 = VERTEX_POINT ( 'NONE', #212 ) ;
#51 = ADVANCED_FACE ( 'NONE', ( #120, #14 ), #138, .T. ) ;
#52 = VERTEX_POINT ( 'NONE', #227 ) ;
#53 = ORIENTED_EDGE ( 'NONE', *, *, #65, .F. ) ;
#54 = FILL_AREA_STYLE_COLOUR ( '', #174 ) ;
#55 =( GEOMETRIC_REPRESENTATION_CONTEXT ( 3 ) GLOBAL_UNCERTAINTY_ASSIGNED_CONTEXT ( ( #20 ) ) GLOBAL_UNIT_ASSIGNED_CONTEXT ( ( #26, #28, #176 ) ) REPRESENTATION_CONTEXT ( 'NONE', 'WORKASPACE' ) );
#56 = DIRECTION ( 'NONE',  ( -1.000000000000000000, -0.000000000000000000, -0.000000000000000000 ) ) ;
#57 = PRODUCT_DEFINITION_FORMATION_WITH_SPECIFIED_SOURCE ( 'ANY', '', #92, .NOT_KNOWN. ) ;
#58 = CYLINDRICAL_SURFACE ( 'NONE', #222, 9.999999999999998224 ) ;
#59 = PRESENTATION_STYLE_ASSIGNMENT (( #10 ) ) ;
#60 = EDGE_CURVE ( 'NONE', #172, #172, #78, .T. ) ;
#61 = CARTESIAN_POINT ( 'NONE',  ( 48.00000000000000000, 0.000000000000000000, 0.000000000000000000 ) ) ;
#62 = FACE_OUTER_BOUND ( 'NONE', #15, .T. ) ;
#63 = PRESENTATION_STYLE_ASSIGNMENT (( #40 ) ) ;
#64 =( GEOMETRIC_REPRESENTATION_CONTEXT ( 3 ) GLOBAL_UNCERTAINTY_ASSIGNED_CONTEXT ( ( #23 ) ) GLOBAL_UNIT_ASSIGNED_CONTEXT ( ( #238, #66, #106 ) ) REPRESENTATION_CONTEXT ( 'NONE', 'WORKASPACE' ) );
#65 = EDGE_CURVE ( 'NONE', #94, #94, #3, .T. ) ;
#66 =( NAMED_UNIT ( * ) PLANE_ANGLE_UNIT ( ) SI_UNIT ( $, .RADIAN. ) );
#67 = DIRECTION ( 'NONE',  ( 0.000000000000000000, 0.000000000000000000, -1.000000000000000000 ) ) ;
#68 = FACE_BOUND ( 'NONE', #97, .T. ) ;
#69 = CIRCLE ( 'NONE', #88, 9.999999999999996447 ) ;
#70 = VERTEX_POINT ( 'NONE', #46 ) ;
#71 = DIRECTION ( 'NONE',  ( -1.000000000000000000, 0.000000000000000000, -0.000000000000000000 ) ) ;
#72 = FACE_OUTER_BOUND ( 'NONE', #196, .T. ) ;
#73 = EDGE_CURVE ( 'NONE', #70, #70, #159, .T. ) ;
#74 = CYLINDRICAL_SURFACE ( 'NONE', #7, 9.999999999999996447 ) ;
#75 = ADVANCED_BREP_SHAPE_REPRESENTATION ( '76.04.04.0009', ( #145, #126 ), #55 ) ;
#76 = SURFACE_STYLE_FILL_AREA ( #157 ) ;
#77 = EDGE_LOOP ( 'NONE', ( #220 ) ) ;
#78 = CIRCLE ( 'NONE', #31, 10.00000000000000178 ) ;
#79 = ORIENTED_EDGE ( 'NONE', *, *, #180, .F. ) ;
#80 = ORIENTED_EDGE ( 'NONE', *, *, #187, .T. ) ;
#81 = DIRECTION ( 'NONE',  ( -1.000000000000000000, -0.000000000000000000, -0.000000000000000000 ) ) ;
#82 = ORIENTED_EDGE ( 'NONE', *, *, #152, .F. ) ;
#83 = STYLED_ITEM ( 'NONE', ( #63 ), #145 ) ;
#84 = DIRECTION ( 'NONE',  ( -0.000000000000000000, 0.000000000000000000, 1.000000000000000000 ) ) ;
#85 = EDGE_CURVE ( 'NONE', #244, #244, #105, .T. ) ;
#86 = FACE_OUTER_BOUND ( 'NONE', #77, .T. ) ;
#87 = PRODUCT_DEFINITION_CONTEXT ( 'detailed design', #234, 'design' ) ;
#88 = AXIS2_PLACEMENT_3D ( 'NONE', #127, #208, #108 ) ;
#89 = CARTESIAN_POINT ( 'NONE',  ( 50.00000000000000000, 0.000000000000000000, 0.000000000000000000 ) ) ;
#90 = FACE_OUTER_BOUND ( 'NONE', #160, .T. ) ;
#91 = DIRECTION ( 'NONE',  ( -1.000000000000000000, -0.000000000000000000, -0.000000000000000000 ) ) ;
#92 = PRODUCT ( '76.04.04.0009', '76.04.04.0009', '', ( #5 ) ) ;
#93 = STYLED_ITEM ( 'NONE', ( #59 ), #75 ) ;
#94 = VERTEX_POINT ( 'NONE', #195 ) ;
#95 = PLANE ( 'NONE',  #45 ) ;
#96 = EDGE_CURVE ( 'NONE', #151, #151, #188, .T. ) ;
#97 = EDGE_LOOP ( 'NONE', ( #9 ) ) ;
#98 = ORIENTED_EDGE ( 'NONE', *, *, #85, .F. ) ;
#99 =( NAMED_UNIT ( * ) SI_UNIT ( $, .STERADIAN. ) SOLID_ANGLE_UNIT ( ) );
#100 = AXIS2_PLACEMENT_3D ( 'NONE', #204, #144, #223 ) ;
#101 = EDGE_LOOP ( 'NONE', ( #236 ) ) ;
#102 = DIRECTION ( 'NONE',  ( -1.000000000000000000, -0.000000000000000000, -0.000000000000000000 ) ) ;
#103 = ORIENTED_EDGE ( 'NONE', *, *, #60, .T. ) ;
#104 = DIRECTION ( 'NONE',  ( -1.000000000000000000, -0.000000000000000000, -0.000000000000000000 ) ) ;
#105 = CIRCLE ( 'NONE', #229, 8.750000000000000000 ) ;
#106 =( NAMED_UNIT ( * ) SI_UNIT ( $, .STERADIAN. ) SOLID_ANGLE_UNIT ( ) );
#107 = DIRECTION ( 'NONE',  ( -1.000000000000000000, 0.000000000000000000, -0.000000000000000000 ) ) ;
#108 = DIRECTION ( 'NONE',  ( 0.000000000000000000, 0.000000000000000000, 1.000000000000000000 ) ) ;
#109 = CIRCLE ( 'NONE', #100, 9.999999999999994671 ) ;
#110 = CARTESIAN_POINT ( 'NONE',  ( 50.00000000000000000, 0.000000000000000000, 0.000000000000000000 ) ) ;
#111 = FACE_BOUND ( 'NONE', #179, .T. ) ;
#112 = DIRECTION ( 'NONE',  ( -1.000000000000000000, -0.000000000000000000, -0.000000000000000000 ) ) ;
#113 = CLOSED_SHELL ( 'NONE', ( #117, #242, #51, #132, #16, #197, #143, #203, #231, #125, #209 ) ) ;
#114 = FACE_OUTER_BOUND ( 'NONE', #12, .T. ) ;
#115 = APPLICATION_PROTOCOL_DEFINITION ( 'draft international standard', 'automotive_design', 1998, #199 ) ;
#116 = FACE_OUTER_BOUND ( 'NONE', #255, .T. ) ;
#117 = ADVANCED_FACE ( 'NONE', ( #62 ), #225, .F. ) ;
#118 = FACE_OUTER_BOUND ( 'NONE', #233, .T. ) ;
#119 = DIRECTION ( 'NONE',  ( 1.000000000000000000, 0.000000000000000000, 0.000000000000000000 ) ) ;
#120 = FACE_OUTER_BOUND ( 'NONE', #139, .T. ) ;
#121 = EDGE_LOOP ( 'NONE', ( #30 ) ) ;
#122 = AXIS2_PLACEMENT_3D ( 'NONE', #133, #130, #2 ) ;
#123 = ORIENTED_EDGE ( 'NONE', *, *, #173, .T. ) ;
#124 = CARTESIAN_POINT ( 'NONE',  ( 3.699999999999997957, 0.000000000000000000, 0.000000000000000000 ) ) ;
#125 = ADVANCED_FACE ( 'NONE', ( #189, #170 ), #184, .T. ) ;
#126 = AXIS2_PLACEMENT_3D ( 'NONE', #219, #250, #119 ) ;
#127 = CARTESIAN_POINT ( 'NONE',  ( 1.499999999999999556, 0.000000000000000000, 0.000000000000000000 ) ) ;
#128 = FACE_OUTER_BOUND ( 'NONE', #101, .T. ) ;
#129 = CIRCLE ( 'NONE', #215, 12.00000000000001243 ) ;
#130 = DIRECTION ( 'NONE',  ( 1.000000000000000000, 0.000000000000000000, 0.000000000000000000 ) ) ;
#131 = FACE_OUTER_BOUND ( 'NONE', #137, .T. ) ;
#132 = ADVANCED_FACE ( 'NONE', ( #17, #128 ), #260, .F. ) ;
#133 = CARTESIAN_POINT ( 'NONE',  ( -1.084202172485504434E-16, 9.133974596215555408, 0.000000000000000000 ) ) ;
#134 = COLOUR_RGB ( '',0.8274509803921568096, 0.8392156862745098200, 0.8274509803921568096 ) ;
#135 = CARTESIAN_POINT ( 'NONE',  ( 46.00000000000000000, 0.000000000000000000, 10.00000000000000178 ) ) ;
#136 = ORIENTED_EDGE ( 'NONE', *, *, #65, .T. ) ;
#137 = EDGE_LOOP ( 'NONE', ( #11 ) ) ;
#138 = CYLINDRICAL_SURFACE ( 'NONE', #205, 14.00000000000000178 ) ;
#139 = EDGE_LOOP ( 'NONE', ( #79 ) ) ;
#140 = APPLICATION_PROTOCOL_DEFINITION ( 'draft international standard', 'automotive_design', 1998, #234 ) ;
#141 = AXIS2_PLACEMENT_3D ( 'NONE', #47, #91, #177 ) ;
#142 = DIRECTION ( 'NONE',  ( 0.000000000000000000, 0.000000000000000000, 1.000000000000000000 ) ) ;
#143 = ADVANCED_FACE ( 'NONE', ( #165, #86 ), #166, .T. ) ;
#144 = DIRECTION ( 'NONE',  ( -1.000000000000000000, -0.000000000000000000, -0.000000000000000000 ) ) ;
#145 = MANIFOLD_SOLID_BREP ( 'Revolve2', #113 ) ;
#146 = DIRECTION ( 'NONE',  ( -1.000000000000000000, -0.000000000000000000, -0.000000000000000000 ) ) ;
#147 = AXIS2_PLACEMENT_3D ( 'NONE', #259, #167, #67 ) ;
#148 = DIRECTION ( 'NONE',  ( -1.000000000000000000, -0.000000000000000000, -0.000000000000000000 ) ) ;
#149 = SURFACE_STYLE_FILL_AREA ( #241 ) ;
#150 = VERTEX_POINT ( 'NONE', #194 ) ;
#151 = VERTEX_POINT ( 'NONE', #156 ) ;
#152 = EDGE_CURVE ( 'NONE', #52, #52, #169, .T. ) ;
#153 = CARTESIAN_POINT ( 'NONE',  ( 5.499999999999998224, 0.000000000000000000, 9.999999999999994671 ) ) ;
#154 = DIRECTION ( 'NONE',  ( -1.000000000000000000, -0.000000000000000000, -0.000000000000000000 ) ) ;
#155 = CIRCLE ( 'NONE', #201, 14.00000000000000000 ) ;
#156 = CARTESIAN_POINT ( 'NONE',  ( -2.168404344971008868E-16, 0.000000000000000000, 9.133974596215555408 ) ) ;
#157 = FILL_AREA_STYLE ('',( #54 ) ) ;
#158 = FACE_OUTER_BOUND ( 'NONE', #178, .T. ) ;
#159 = CIRCLE ( 'NONE', #41, 8.750000000000000000 ) ;
#160 = EDGE_LOOP ( 'NONE', ( #82 ) ) ;
#161 = ORIENTED_EDGE ( 'NONE', *, *, #173, .F. ) ;
#162 = DIRECTION ( 'NONE',  ( 0.000000000000000000, 0.000000000000000000, 1.000000000000000000 ) ) ;
#163 = PRODUCT_DEFINITION_SHAPE ( 'NONE', 'NONE',  #25 ) ;
#164 = MECHANICAL_DESIGN_GEOMETRIC_PRESENTATION_REPRESENTATION (  '', ( #93 ), #258 ) ;
#165 = FACE_OUTER_BOUND ( 'NONE', #183, .T. ) ;
#166 = CYLINDRICAL_SURFACE ( 'NONE', #246, 8.750000000000000000 ) ;
#167 = DIRECTION ( 'NONE',  ( 1.000000000000000000, 0.000000000000000000, 0.000000000000000000 ) ) ;
#168 = SURFACE_SIDE_STYLE ('',( #149 ) ) ;
#169 = CIRCLE ( 'NONE', #211, 9.999999999999996447 ) ;
#170 = FACE_OUTER_BOUND ( 'NONE', #235, .T. ) ;
#171 = PLANE ( 'NONE',  #122 ) ;
#172 = VERTEX_POINT ( 'NONE', #135 ) ;
#173 = EDGE_CURVE ( 'NONE', #213, #213, #109, .T. ) ;
#174 = COLOUR_RGB ( '',0.8274509803921568096, 0.8392156862745098200, 0.8274509803921568096 ) ;
#175 = FACE_OUTER_BOUND ( 'NONE', #202, .T. ) ;
#176 =( NAMED_UNIT ( * ) SI_UNIT ( $, .STERADIAN. ) SOLID_ANGLE_UNIT ( ) );
#177 = DIRECTION ( 'NONE',  ( 0.000000000000000000, 0.000000000000000000, 1.000000000000000000 ) ) ;
#178 = EDGE_LOOP ( 'NONE', ( #103 ) ) ;
#179 = EDGE_LOOP ( 'NONE', ( #98 ) ) ;
#180 = EDGE_CURVE ( 'NONE', #150, #150, #155, .T. ) ;
#181 = CARTESIAN_POINT ( 'NONE',  ( 46.00000000000000000, 0.000000000000000000, 0.000000000000000000 ) ) ;
#182 = DIRECTION ( 'NONE',  ( 0.000000000000000000, 0.000000000000000000, 1.000000000000000000 ) ) ;
#183 = EDGE_LOOP ( 'NONE', ( #257 ) ) ;
#184 = CONICAL_SURFACE ( 'NONE', #254, 9.999999999999996447, 0.5235987755983001479 ) ;
#185 = CARTESIAN_POINT ( 'NONE',  ( 5.499999999999998224, 0.000000000000000000, 0.000000000000000000 ) ) ;
#186 = DIRECTION ( 'NONE',  ( 0.000000000000000000, 0.000000000000000000, -1.000000000000000000 ) ) ;
#187 = EDGE_CURVE ( 'NONE', #50, #50, #69, .T. ) ;
#188 = CIRCLE ( 'NONE', #36, 9.133974596215555408 ) ;
#189 = FACE_BOUND ( 'NONE', #200, .T. ) ;
#190 = EDGE_CURVE ( 'NONE', #226, #226, #129, .T. ) ;
#191 = DIRECTION ( 'NONE',  ( 0.000000000000000000, 0.000000000000000000, 1.000000000000000000 ) ) ;
#192 = DIRECTION ( 'NONE',  ( 1.000000000000000000, 0.000000000000000000, 0.000000000000000000 ) ) ;
#193 = AXIS2_PLACEMENT_3D ( 'NONE', #110, #107, #84 ) ;
#194 = CARTESIAN_POINT ( 'NONE',  ( 46.00000000000000000, 0.000000000000000000, 14.00000000000000000 ) ) ;
#195 = CARTESIAN_POINT ( 'NONE',  ( 48.00000000000000000, 0.000000000000000000, 14.00000000000000178 ) ) ;
#196 = EDGE_LOOP ( 'NONE', ( #123 ) ) ;
#197 = ADVANCED_FACE ( 'NONE', ( #111, #72 ), #29, .F. ) ;
#198 = EDGE_LOOP ( 'NONE', ( #37 ) ) ;
#199 = APPLICATION_CONTEXT ( 'automotive_design' ) ;
#200 = EDGE_LOOP ( 'NONE', ( #214 ) ) ;
#201 = AXIS2_PLACEMENT_3D ( 'NONE', #42, #148, #224 ) ;
#202 = EDGE_LOOP ( 'NONE', ( #53 ) ) ;
#203 = ADVANCED_FACE ( 'NONE', ( #90, #4 ), #95, .F. ) ;
#204 = CARTESIAN_POINT ( 'NONE',  ( 5.499999999999998224, 0.000000000000000000, 0.000000000000000000 ) ) ;
#205 = AXIS2_PLACEMENT_3D ( 'NONE', #217, #34, #182 ) ;
#206 = CARTESIAN_POINT ( 'NONE',  ( 0.000000000000000000, 0.000000000000000000, 0.000000000000000000 ) ) ;
#207 = DIRECTION ( 'NONE',  ( 0.000000000000000000, 0.000000000000000000, 1.000000000000000000 ) ) ;
#208 = DIRECTION ( 'NONE',  ( -1.000000000000000000, -0.000000000000000000, -0.000000000000000000 ) ) ;
#209 = ADVANCED_FACE ( 'NONE', ( #116 ), #171, .F. ) ;
#210 = DIRECTION ( 'NONE',  ( 0.000000000000000000, 0.000000000000000000, -1.000000000000000000 ) ) ;
#211 = AXIS2_PLACEMENT_3D ( 'NONE', #124, #43, #39 ) ;
#212 = CARTESIAN_POINT ( 'NONE',  ( 1.499999999999999556, 0.000000000000000000, 9.999999999999996447 ) ) ;
#213 = VERTEX_POINT ( 'NONE', #153 ) ;
#214 = ORIENTED_EDGE ( 'NONE', *, *, #96, .F. ) ;
#215 = AXIS2_PLACEMENT_3D ( 'NONE', #89, #112, #245 ) ;
#216 = ORIENTED_EDGE ( 'NONE', *, *, #152, .T. ) ;
#217 = CARTESIAN_POINT ( 'NONE',  ( 0.000000000000000000, 0.000000000000000000, 0.000000000000000000 ) ) ;
#218 = PRESENTATION_LAYER_ASSIGNMENT (  '', '', ( #83 ) ) ;
#219 = CARTESIAN_POINT ( 'NONE',  ( 0.000000000000000000, 0.000000000000000000, 0.000000000000000000 ) ) ;
#220 = ORIENTED_EDGE ( 'NONE', *, *, #85, .T. ) ;
#221 = DIRECTION ( 'NONE',  ( -1.000000000000000000, -0.000000000000000000, -0.000000000000000000 ) ) ;
#222 = AXIS2_PLACEMENT_3D ( 'NONE', #232, #56, #32 ) ;
#223 = DIRECTION ( 'NONE',  ( 0.000000000000000000, 0.000000000000000000, 1.000000000000000000 ) ) ;
#224 = DIRECTION ( 'NONE',  ( 0.000000000000000000, 0.000000000000000000, 1.000000000000000000 ) ) ;
#225 = PLANE ( 'NONE',  #193 ) ;
#226 = VERTEX_POINT ( 'NONE', #247 ) ;
#227 = CARTESIAN_POINT ( 'NONE',  ( 3.699999999999997957, 0.000000000000000000, 9.999999999999996447 ) ) ;
#228 = CARTESIAN_POINT ( 'NONE',  ( 5.499999999999998224, 8.750000000000000000, 0.000000000000000000 ) ) ;
#229 = AXIS2_PLACEMENT_3D ( 'NONE', #185, #146, #207 ) ;
#230 = DIRECTION ( 'NONE',  ( -0.000000000000000000, 0.000000000000000000, 1.000000000000000000 ) ) ;
#231 = ADVANCED_FACE ( 'NONE', ( #131, #114 ), #74, .T. ) ;
#232 = CARTESIAN_POINT ( 'NONE',  ( 0.000000000000000000, 0.000000000000000000, 0.000000000000000000 ) ) ;
#233 = EDGE_LOOP ( 'NONE', ( #161 ) ) ;
#234 = APPLICATION_CONTEXT ( 'automotive_design' ) ;
#235 = EDGE_LOOP ( 'NONE', ( #80 ) ) ;
#236 = ORIENTED_EDGE ( 'NONE', *, *, #180, .T. ) ;
#237 = PRESENTATION_LAYER_ASSIGNMENT (  '', '', ( #93 ) ) ;
#238 =( LENGTH_UNIT ( ) NAMED_UNIT ( * ) SI_UNIT ( .MILLI., .METRE. ) );
#239 = FILL_AREA_STYLE_COLOUR ( '', #134 ) ;
#240 = DIRECTION ( 'NONE',  ( 0.000000000000000000, 0.000000000000000000, 1.000000000000000000 ) ) ;
#241 = FILL_AREA_STYLE ('',( #239 ) ) ;
#242 = ADVANCED_FACE ( 'NONE', ( #175, #68 ), #249, .T. ) ;
#243 = CARTESIAN_POINT ( 'NONE',  ( -2.168404344971008868E-16, 0.000000000000000000, 0.000000000000000000 ) ) ;
#244 = VERTEX_POINT ( 'NONE', #248 ) ;
#245 = DIRECTION ( 'NONE',  ( 0.000000000000000000, 0.000000000000000000, 1.000000000000000000 ) ) ;
#246 = AXIS2_PLACEMENT_3D ( 'NONE', #206, #221, #240 ) ;
#247 = CARTESIAN_POINT ( 'NONE',  ( 50.00000000000000000, 0.000000000000000000, 12.00000000000001243 ) ) ;
#248 = CARTESIAN_POINT ( 'NONE',  ( 5.499999999999998224, 0.000000000000000000, 8.750000000000000000 ) ) ;
#249 = CONICAL_SURFACE ( 'NONE', #141, 12.00000000000001243, 0.7853981633974452814 ) ;
#250 = DIRECTION ( 'NONE',  ( 0.000000000000000000, 0.000000000000000000, 1.000000000000000000 ) ) ;
#251 =( LENGTH_UNIT ( ) NAMED_UNIT ( * ) SI_UNIT ( .MILLI., .METRE. ) );
#252 = EDGE_LOOP ( 'NONE', ( #136 ) ) ;
#253 = ORIENTED_EDGE ( 'NONE', *, *, #96, .T. ) ;
#254 = AXIS2_PLACEMENT_3D ( 'NONE', #44, #1, #186 ) ;
#255 = EDGE_LOOP ( 'NONE', ( #253 ) ) ;
#256 = DIRECTION ( 'NONE',  ( 0.000000000000000000, 0.000000000000000000, 1.000000000000000000 ) ) ;
#257 = ORIENTED_EDGE ( 'NONE', *, *, #73, .F. ) ;
#258 =( GEOMETRIC_REPRESENTATION_CONTEXT ( 3 ) GLOBAL_UNCERTAINTY_ASSIGNED_CONTEXT ( ( #38 ) ) GLOBAL_UNIT_ASSIGNED_CONTEXT ( ( #251, #13, #99 ) ) REPRESENTATION_CONTEXT ( 'NONE', 'WORKASPACE' ) );
#259 = CARTESIAN_POINT ( 'NONE',  ( 46.00000000000000000, 14.00000000000000000, 0.000000000000000000 ) ) ;
#260 = PLANE ( 'NONE',  #147 ) ;
ENDSEC;
END-ISO-10303-21;
