ISO-10303-21;
HEADER;
FILE_DESCRIPTION (( 'STEP AP214' ),
    '1' );
FILE_NAME ('76.04.04.0008.step',
    '2021-04-02T18:04:36',
    ( '' ),
    ( '' ),
    'SwSTEP 2.0',
    'SolidWorks 2021',
    '' );
FILE_SCHEMA (( 'AUTOMOTIVE_DESIGN' ));
ENDSEC;

DATA;
#1 = CARTESIAN_POINT ( 'NONE',  ( 2.168404344971008868E-16, 0.000000000000000000, 7.133974596215552744 ) ) ;
#2 = ORIENTED_EDGE ( 'NONE', *, *, #17, .T. ) ;
#3 = AXIS2_PLACEMENT_3D ( 'NONE', #164, #148, #228 ) ;
#4 =( NAMED_UNIT ( * ) SI_UNIT ( $, .STERADIAN. ) SOLID_ANGLE_UNIT ( ) );
#5 = DIRECTION ( 'NONE',  ( -1.000000000000000000, -0.000000000000000000, -0.000000000000000000 ) ) ;
#6 = EDGE_LOOP ( 'NONE', ( #123 ) ) ;
#7 = FACE_OUTER_BOUND ( 'NONE', #207, .T. ) ;
#8 = PRESENTATION_LAYER_ASSIGNMENT (  '', '', ( #70 ) ) ;
#9 = CARTESIAN_POINT ( 'NONE',  ( 42.00000000000000000, 0.000000000000000000, 0.000000000000000000 ) ) ;
#10 = DIRECTION ( 'NONE',  ( 0.000000000000000000, 0.000000000000000000, 1.000000000000000000 ) ) ;
#11 = CYLINDRICAL_SURFACE ( 'NONE', #37, 7.999999999999994671 ) ;
#12 = DIRECTION ( 'NONE',  ( -1.000000000000000000, -0.000000000000000000, -0.000000000000000000 ) ) ;
#13 = SURFACE_STYLE_USAGE ( .BOTH. , #215 ) ;
#14 = FACE_BOUND ( 'NONE', #105, .T. ) ;
#15 = MECHANICAL_DESIGN_GEOMETRIC_PRESENTATION_REPRESENTATION (  '', ( #70 ), #160 ) ;
#16 = SURFACE_SIDE_STYLE ('',( #197 ) ) ;
#17 = EDGE_CURVE ( 'NONE', #77, #77, #110, .T. ) ;
#18 = CARTESIAN_POINT ( 'NONE',  ( 38.50000000000000000, 0.000000000000000000, 8.000000000000000000 ) ) ;
#19 = AXIS2_PLACEMENT_3D ( 'NONE', #208, #182, #170 ) ;
#20 =( NAMED_UNIT ( * ) SI_UNIT ( $, .STERADIAN. ) SOLID_ANGLE_UNIT ( ) );
#21 = EDGE_LOOP ( 'NONE', ( #227 ) ) ;
#22 = EDGE_LOOP ( 'NONE', ( #162 ) ) ;
#23 = ORIENTED_EDGE ( 'NONE', *, *, #213, .F. ) ;
#24 = CARTESIAN_POINT ( 'NONE',  ( 2.168404344971008868E-16, 0.000000000000000000, 0.000000000000000000 ) ) ;
#25 = ORIENTED_EDGE ( 'NONE', *, *, #240, .F. ) ;
#26 = ORIENTED_EDGE ( 'NONE', *, *, #17, .F. ) ;
#27 = CIRCLE ( 'NONE', #98, 7.999999999999994671 ) ;
#28 = FACE_OUTER_BOUND ( 'NONE', #203, .T. ) ;
#29 = DIRECTION ( 'NONE',  ( -1.000000000000000000, 0.000000000000000000, -0.000000000000000000 ) ) ;
#30 = CARTESIAN_POINT ( 'NONE',  ( 6.000000000000000000, 0.000000000000000000, 0.000000000000000000 ) ) ;
#31 = DIRECTION ( 'NONE',  ( 0.000000000000000000, 0.000000000000000000, 1.000000000000000000 ) ) ;
#32 = CARTESIAN_POINT ( 'NONE',  ( 6.000000000000000000, 0.000000000000000000, 6.000000000000000000 ) ) ;
#33 = MECHANICAL_DESIGN_GEOMETRIC_PRESENTATION_REPRESENTATION (  '', ( #91 ), #111 ) ;
#34 = EDGE_CURVE ( 'NONE', #199, #199, #27, .T. ) ;
#35 = VERTEX_POINT ( 'NONE', #32 ) ;
#36 = ORIENTED_EDGE ( 'NONE', *, *, #75, .T. ) ;
#37 = AXIS2_PLACEMENT_3D ( 'NONE', #72, #172, #155 ) ;
#38 = ADVANCED_FACE ( 'NONE', ( #108, #205 ), #247, .T. ) ;
#39 = EDGE_LOOP ( 'NONE', ( #36 ) ) ;
#40 = EDGE_LOOP ( 'NONE', ( #23 ) ) ;
#41 = DIRECTION ( 'NONE',  ( 0.000000000000000000, 0.000000000000000000, 1.000000000000000000 ) ) ;
#42 = EDGE_CURVE ( 'NONE', #35, #35, #101, .T. ) ;
#43 = SHAPE_DEFINITION_REPRESENTATION ( #257, #166 ) ;
#44 = CARTESIAN_POINT ( 'NONE',  ( 40.50000000000000000, 0.000000000000000000, 0.000000000000000000 ) ) ;
#45 = EDGE_LOOP ( 'NONE', ( #2 ) ) ;
#46 = FACE_OUTER_BOUND ( 'NONE', #6, .T. ) ;
#47 = CYLINDRICAL_SURFACE ( 'NONE', #106, 10.00000000000000000 ) ;
#48 = ADVANCED_FACE ( 'NONE', ( #225, #168 ), #85, .F. ) ;
#49 = PRESENTATION_STYLE_ASSIGNMENT (( #13 ) ) ;
#50 = FACE_OUTER_BOUND ( 'NONE', #103, .T. ) ;
#51 = ADVANCED_FACE ( 'NONE', ( #7, #124 ), #126, .T. ) ;
#52 = FACE_OUTER_BOUND ( 'NONE', #107, .T. ) ;
#53 = CARTESIAN_POINT ( 'NONE',  ( 4.649999999999999467, 0.000000000000000000, 6.000000000000000000 ) ) ;
#54 =( NAMED_UNIT ( * ) PLANE_ANGLE_UNIT ( ) SI_UNIT ( $, .RADIAN. ) );
#55 = CARTESIAN_POINT ( 'NONE',  ( 4.649999999999999467, 0.000000000000000000, 0.000000000000000000 ) ) ;
#56 =( NAMED_UNIT ( * ) SI_UNIT ( $, .STERADIAN. ) SOLID_ANGLE_UNIT ( ) );
#57 = APPLICATION_PROTOCOL_DEFINITION ( 'draft international standard', 'automotive_design', 1998, #83 ) ;
#58 = EDGE_CURVE ( 'NONE', #178, #178, #229, .T. ) ;
#59 = CIRCLE ( 'NONE', #236, 10.00000000000000000 ) ;
#60 = DIRECTION ( 'NONE',  ( -1.000000000000000000, -0.000000000000000000, -0.000000000000000000 ) ) ;
#61 =( LENGTH_UNIT ( ) NAMED_UNIT ( * ) SI_UNIT ( .MILLI., .METRE. ) );
#62 = ORIENTED_EDGE ( 'NONE', *, *, #42, .T. ) ;
#63 = PRODUCT_DEFINITION ( 'UNKNOWN', '', #82, #135 ) ;
#64 =( NAMED_UNIT ( * ) PLANE_ANGLE_UNIT ( ) SI_UNIT ( $, .RADIAN. ) );
#65 = ORIENTED_EDGE ( 'NONE', *, *, #210, .T. ) ;
#66 = AXIS2_PLACEMENT_3D ( 'NONE', #93, #134, #187 ) ;
#67 = DIRECTION ( 'NONE',  ( -1.000000000000000000, -0.000000000000000000, -0.000000000000000000 ) ) ;
#68 = EDGE_CURVE ( 'NONE', #137, #137, #59, .T. ) ;
#69 = DIRECTION ( 'NONE',  ( -1.000000000000000000, -0.000000000000000000, -0.000000000000000000 ) ) ;
#70 = STYLED_ITEM ( 'NONE', ( #80 ), #166 ) ;
#71 = CARTESIAN_POINT ( 'NONE',  ( 0.000000000000000000, 0.000000000000000000, 0.000000000000000000 ) ) ;
#72 = CARTESIAN_POINT ( 'NONE',  ( 0.000000000000000000, 0.000000000000000000, 0.000000000000000000 ) ) ;
#73 = FILL_AREA_STYLE ('',( #90 ) ) ;
#74 = DIRECTION ( 'NONE',  ( 0.000000000000000000, 0.000000000000000000, -1.000000000000000000 ) ) ;
#75 = EDGE_CURVE ( 'NONE', #76, #76, #79, .T. ) ;
#76 = VERTEX_POINT ( 'NONE', #18 ) ;
#77 = VERTEX_POINT ( 'NONE', #1 ) ;
#78 = CARTESIAN_POINT ( 'NONE',  ( 6.000000000000000000, 0.000000000000000000, 7.999999999999996447 ) ) ;
#79 = CIRCLE ( 'NONE', #242, 8.000000000000000000 ) ;
#80 = PRESENTATION_STYLE_ASSIGNMENT (( #260 ) ) ;
#81 = DIRECTION ( 'NONE',  ( 1.000000000000000000, 0.000000000000000000, 0.000000000000000000 ) ) ;
#82 = PRODUCT_DEFINITION_FORMATION_WITH_SPECIFIED_SOURCE ( 'ANY', '', #140, .NOT_KNOWN. ) ;
#83 = APPLICATION_CONTEXT ( 'automotive_design' ) ;
#84 = ADVANCED_FACE ( 'NONE', ( #250, #174 ), #255, .F. ) ;
#85 = PLANE ( 'NONE',  #180 ) ;
#86 = CARTESIAN_POINT ( 'NONE',  ( 38.50000000000000000, 10.00000000000000000, 0.000000000000000000 ) ) ;
#87 = EDGE_LOOP ( 'NONE', ( #181 ) ) ;
#88 = EDGE_LOOP ( 'NONE', ( #25 ) ) ;
#89 = FACE_OUTER_BOUND ( 'NONE', #22, .T. ) ;
#90 = FILL_AREA_STYLE_COLOUR ( '', #214 ) ;
#91 = STYLED_ITEM ( 'NONE', ( #49 ), #226 ) ;
#92 = ADVANCED_FACE ( 'NONE', ( #95 ), #112, .F. ) ;
#93 = CARTESIAN_POINT ( 'NONE',  ( 6.000000000000000000, 6.000000000000000000, 0.000000000000000000 ) ) ;
#94 = DIRECTION ( 'NONE',  ( -1.000000000000000000, -0.000000000000000000, -0.000000000000000000 ) ) ;
#95 = FACE_OUTER_BOUND ( 'NONE', #45, .T. ) ;
#96 = AXIS2_PLACEMENT_3D ( 'NONE', #232, #94, #175 ) ;
#97 = ORIENTED_EDGE ( 'NONE', *, *, #210, .F. ) ;
#98 = AXIS2_PLACEMENT_3D ( 'NONE', #249, #184, #125 ) ;
#99 = VERTEX_POINT ( 'NONE', #78 ) ;
#100 = PRODUCT_CONTEXT ( 'NONE', #83, 'mechanical' ) ;
#101 = CIRCLE ( 'NONE', #19, 6.000000000000000000 ) ;
#102 =( NAMED_UNIT ( * ) PLANE_ANGLE_UNIT ( ) SI_UNIT ( $, .RADIAN. ) );
#103 = EDGE_LOOP ( 'NONE', ( #195 ) ) ;
#104 = ADVANCED_FACE ( 'NONE', ( #50, #89 ), #47, .T. ) ;
#105 = EDGE_LOOP ( 'NONE', ( #245 ) ) ;
#106 = AXIS2_PLACEMENT_3D ( 'NONE', #192, #130, #251 ) ;
#107 = EDGE_LOOP ( 'NONE', ( #62 ) ) ;
#108 = FACE_OUTER_BOUND ( 'NONE', #40, .T. ) ;
#109 = EDGE_LOOP ( 'NONE', ( #246 ) ) ;
#110 = CIRCLE ( 'NONE', #142, 7.133974596215552744 ) ;
#111 =( GEOMETRIC_REPRESENTATION_CONTEXT ( 3 ) GLOBAL_UNCERTAINTY_ASSIGNED_CONTEXT ( ( #239 ) ) GLOBAL_UNIT_ASSIGNED_CONTEXT ( ( #114, #102, #20 ) ) REPRESENTATION_CONTEXT ( 'NONE', 'WORKASPACE' ) );
#112 = PLANE ( 'NONE',  #206 ) ;
#113 = DIRECTION ( 'NONE',  ( -0.000000000000000000, 0.000000000000000000, 1.000000000000000000 ) ) ;
#114 =( LENGTH_UNIT ( ) NAMED_UNIT ( * ) SI_UNIT ( .MILLI., .METRE. ) );
#115 = CONICAL_SURFACE ( 'NONE', #120, 7.999999999999994671, 0.5235987755983005920 ) ;
#116 = CYLINDRICAL_SURFACE ( 'NONE', #223, 6.000000000000000000 ) ;
#117 = DIRECTION ( 'NONE',  ( -1.000000000000000000, -0.000000000000000000, -0.000000000000000000 ) ) ;
#118 = ORIENTED_EDGE ( 'NONE', *, *, #42, .F. ) ;
#119 = FILL_AREA_STYLE ('',( #221 ) ) ;
#120 = AXIS2_PLACEMENT_3D ( 'NONE', #188, #234, #131 ) ;
#121 = VERTEX_POINT ( 'NONE', #53 ) ;
#122 = ORIENTED_EDGE ( 'NONE', *, *, #75, .F. ) ;
#123 = ORIENTED_EDGE ( 'NONE', *, *, #34, .F. ) ;
#124 = FACE_BOUND ( 'NONE', #244, .T. ) ;
#125 = DIRECTION ( 'NONE',  ( 0.000000000000000000, 0.000000000000000000, 1.000000000000000000 ) ) ;
#126 = CONICAL_SURFACE ( 'NONE', #243, 8.500000000000000000, 0.7853981633974477239 ) ;
#127 = DIRECTION ( 'NONE',  ( -1.000000000000000000, -0.000000000000000000, -0.000000000000000000 ) ) ;
#128 = DIRECTION ( 'NONE',  ( 0.000000000000000000, 0.000000000000000000, 1.000000000000000000 ) ) ;
#129 = CARTESIAN_POINT ( 'NONE',  ( 38.50000000000000000, 0.000000000000000000, 0.000000000000000000 ) ) ;
#130 = DIRECTION ( 'NONE',  ( -1.000000000000000000, -0.000000000000000000, -0.000000000000000000 ) ) ;
#131 = DIRECTION ( 'NONE',  ( 0.000000000000000000, 0.000000000000000000, -1.000000000000000000 ) ) ;
#132 = DIRECTION ( 'NONE',  ( -1.000000000000000000, -0.000000000000000000, -0.000000000000000000 ) ) ;
#133 = CIRCLE ( 'NONE', #252, 7.999999999999996447 ) ;
#134 = DIRECTION ( 'NONE',  ( 1.000000000000000000, 0.000000000000000000, 0.000000000000000000 ) ) ;
#135 = PRODUCT_DEFINITION_CONTEXT ( 'detailed design', #149, 'design' ) ;
#136 =( LENGTH_UNIT ( ) NAMED_UNIT ( * ) SI_UNIT ( .MILLI., .METRE. ) );
#137 = VERTEX_POINT ( 'NONE', #157 ) ;
#138 = DIRECTION ( 'NONE',  ( 0.000000000000000000, 0.000000000000000000, 1.000000000000000000 ) ) ;
#139 =( GEOMETRIC_REPRESENTATION_CONTEXT ( 3 ) GLOBAL_UNCERTAINTY_ASSIGNED_CONTEXT ( ( #177 ) ) GLOBAL_UNIT_ASSIGNED_CONTEXT ( ( #136, #54, #56 ) ) REPRESENTATION_CONTEXT ( 'NONE', 'WORKASPACE' ) );
#140 = PRODUCT ( '76.04.04.0008', '76.04.04.0008', '', ( #100 ) ) ;
#141 = VERTEX_POINT ( 'NONE', #179 ) ;
#142 = AXIS2_PLACEMENT_3D ( 'NONE', #24, #5, #128 ) ;
#143 = COLOUR_RGB ( '',0.8274509803921568096, 0.8392156862745098200, 0.8274509803921568096 ) ;
#144 = ADVANCED_FACE ( 'NONE', ( #189, #52 ), #116, .T. ) ;
#145 = EDGE_LOOP ( 'NONE', ( #241 ) ) ;
#146 = CARTESIAN_POINT ( 'NONE',  ( 0.000000000000000000, 0.000000000000000000, 0.000000000000000000 ) ) ;
#147 = ORIENTED_EDGE ( 'NONE', *, *, #68, .F. ) ;
#148 = DIRECTION ( 'NONE',  ( -1.000000000000000000, -0.000000000000000000, -0.000000000000000000 ) ) ;
#149 = APPLICATION_CONTEXT ( 'automotive_design' ) ;
#150 = EDGE_LOOP ( 'NONE', ( #224 ) ) ;
#151 = EDGE_LOOP ( 'NONE', ( #122 ) ) ;
#152 = CARTESIAN_POINT ( 'NONE',  ( 1.084202172485504434E-16, 7.133974596215552744, 0.000000000000000000 ) ) ;
#153 = CIRCLE ( 'NONE', #96, 7.999999999999994671 ) ;
#154 = CARTESIAN_POINT ( 'NONE',  ( 42.00000000000000000, 0.000000000000000000, 0.000000000000000000 ) ) ;
#155 = DIRECTION ( 'NONE',  ( 0.000000000000000000, 0.000000000000000000, 1.000000000000000000 ) ) ;
#156 = SURFACE_STYLE_FILL_AREA ( #73 ) ;
#157 = CARTESIAN_POINT ( 'NONE',  ( 40.50000000000000000, 0.000000000000000000, 10.00000000000000000 ) ) ;
#158 = CARTESIAN_POINT ( 'NONE',  ( 4.649999999999999467, 7.999999999999994671, 0.000000000000000000 ) ) ;
#159 = VERTEX_POINT ( 'NONE', #237 ) ;
#160 =( GEOMETRIC_REPRESENTATION_CONTEXT ( 3 ) GLOBAL_UNCERTAINTY_ASSIGNED_CONTEXT ( ( #235 ) ) GLOBAL_UNIT_ASSIGNED_CONTEXT ( ( #61, #64, #4 ) ) REPRESENTATION_CONTEXT ( 'NONE', 'WORKASPACE' ) );
#161 = EDGE_LOOP ( 'NONE', ( #118 ) ) ;
#162 = ORIENTED_EDGE ( 'NONE', *, *, #68, .T. ) ;
#163 = DIRECTION ( 'NONE',  ( 0.000000000000000000, 0.000000000000000000, 1.000000000000000000 ) ) ;
#164 = CARTESIAN_POINT ( 'NONE',  ( 38.50000000000000000, 0.000000000000000000, 0.000000000000000000 ) ) ;
#165 = ADVANCED_FACE ( 'NONE', ( #28 ), #212, .F. ) ;
#166 = ADVANCED_BREP_SHAPE_REPRESENTATION ( '76.04.04.0008', ( #226, #217 ), #139 ) ;
#167 = DIRECTION ( 'NONE',  ( 1.000000000000000000, 0.000000000000000000, 0.000000000000000000 ) ) ;
#168 = FACE_OUTER_BOUND ( 'NONE', #145, .T. ) ;
#169 = AXIS2_PLACEMENT_3D ( 'NONE', #55, #256, #138 ) ;
#170 = DIRECTION ( 'NONE',  ( 0.000000000000000000, 0.000000000000000000, 1.000000000000000000 ) ) ;
#171 = DIRECTION ( 'NONE',  ( 0.000000000000000000, 0.000000000000000000, 1.000000000000000000 ) ) ;
#172 = DIRECTION ( 'NONE',  ( -1.000000000000000000, -0.000000000000000000, -0.000000000000000000 ) ) ;
#173 = CIRCLE ( 'NONE', #211, 8.500000000000000000 ) ;
#174 = FACE_OUTER_BOUND ( 'NONE', #109, .T. ) ;
#175 = DIRECTION ( 'NONE',  ( 0.000000000000000000, 0.000000000000000000, 1.000000000000000000 ) ) ;
#176 = FACE_OUTER_BOUND ( 'NONE', #87, .T. ) ;
#177 = UNCERTAINTY_MEASURE_WITH_UNIT (LENGTH_MEASURE( 1.000000000000000082E-05 ), #136, 'distance_accuracy_value', 'NONE');
#178 = VERTEX_POINT ( 'NONE', #198 ) ;
#179 = CARTESIAN_POINT ( 'NONE',  ( 42.00000000000000000, 0.000000000000000000, 8.500000000000000000 ) ) ;
#180 = AXIS2_PLACEMENT_3D ( 'NONE', #86, #81, #185 ) ;
#181 = ORIENTED_EDGE ( 'NONE', *, *, #34, .T. ) ;
#182 = DIRECTION ( 'NONE',  ( -1.000000000000000000, -0.000000000000000000, -0.000000000000000000 ) ) ;
#183 = DIRECTION ( 'NONE',  ( 0.000000000000000000, 0.000000000000000000, 1.000000000000000000 ) ) ;
#184 = DIRECTION ( 'NONE',  ( -1.000000000000000000, -0.000000000000000000, -0.000000000000000000 ) ) ;
#185 = DIRECTION ( 'NONE',  ( 0.000000000000000000, 0.000000000000000000, -1.000000000000000000 ) ) ;
#186 = AXIS2_PLACEMENT_3D ( 'NONE', #230, #60, #183 ) ;
#187 = DIRECTION ( 'NONE',  ( 0.000000000000000000, 0.000000000000000000, -1.000000000000000000 ) ) ;
#188 = CARTESIAN_POINT ( 'NONE',  ( 1.500000000000000222, 0.000000000000000000, 0.000000000000000000 ) ) ;
#189 = FACE_OUTER_BOUND ( 'NONE', #88, .T. ) ;
#190 = AXIS2_PLACEMENT_3D ( 'NONE', #154, #29, #113 ) ;
#191 = ADVANCED_FACE ( 'NONE', ( #46, #233 ), #11, .T. ) ;
#192 = CARTESIAN_POINT ( 'NONE',  ( 0.000000000000000000, 0.000000000000000000, 0.000000000000000000 ) ) ;
#193 = FACE_BOUND ( 'NONE', #202, .T. ) ;
#194 = APPLICATION_PROTOCOL_DEFINITION ( 'draft international standard', 'automotive_design', 1998, #149 ) ;
#195 = ORIENTED_EDGE ( 'NONE', *, *, #58, .F. ) ;
#196 = AXIS2_PLACEMENT_3D ( 'NONE', #158, #258, #216 ) ;
#197 = SURFACE_STYLE_FILL_AREA ( #119 ) ;
#198 = CARTESIAN_POINT ( 'NONE',  ( 38.50000000000000000, 0.000000000000000000, 10.00000000000000000 ) ) ;
#199 = VERTEX_POINT ( 'NONE', #218 ) ;
#200 = PRESENTATION_LAYER_ASSIGNMENT (  '', '', ( #91 ) ) ;
#201 = ADVANCED_FACE ( 'NONE', ( #193, #176 ), #115, .T. ) ;
#202 = EDGE_LOOP ( 'NONE', ( #26 ) ) ;
#203 = EDGE_LOOP ( 'NONE', ( #97 ) ) ;
#204 = CARTESIAN_POINT ( 'NONE',  ( 42.00000000000000000, 0.000000000000000000, 0.000000000000000000 ) ) ;
#205 = FACE_OUTER_BOUND ( 'NONE', #39, .T. ) ;
#206 = AXIS2_PLACEMENT_3D ( 'NONE', #152, #231, #74 ) ;
#207 = EDGE_LOOP ( 'NONE', ( #147 ) ) ;
#208 = CARTESIAN_POINT ( 'NONE',  ( 6.000000000000000000, 0.000000000000000000, 0.000000000000000000 ) ) ;
#209 = DIRECTION ( 'NONE',  ( 0.000000000000000000, 0.000000000000000000, 1.000000000000000000 ) ) ;
#210 = EDGE_CURVE ( 'NONE', #141, #141, #173, .T. ) ;
#211 = AXIS2_PLACEMENT_3D ( 'NONE', #9, #117, #31 ) ;
#212 = PLANE ( 'NONE',  #190 ) ;
#213 = EDGE_CURVE ( 'NONE', #99, #99, #133, .T. ) ;
#214 = COLOUR_RGB ( '',0.8274509803921568096, 0.8392156862745098200, 0.8274509803921568096 ) ;
#215 = SURFACE_SIDE_STYLE ('',( #156 ) ) ;
#216 = DIRECTION ( 'NONE',  ( -0.000000000000000000, 0.000000000000000000, 1.000000000000000000 ) ) ;
#217 = AXIS2_PLACEMENT_3D ( 'NONE', #146, #41, #167 ) ;
#218 = CARTESIAN_POINT ( 'NONE',  ( 1.500000000000000222, 0.000000000000000000, 7.999999999999994671 ) ) ;
#219 = FACE_OUTER_BOUND ( 'NONE', #150, .T. ) ;
#220 = EDGE_CURVE ( 'NONE', #159, #159, #153, .T. ) ;
#221 = FILL_AREA_STYLE_COLOUR ( '', #143 ) ;
#222 = CLOSED_SHELL ( 'NONE', ( #165, #51, #104, #48, #38, #84, #144, #238, #191, #201, #92 ) ) ;
#223 = AXIS2_PLACEMENT_3D ( 'NONE', #71, #69, #253 ) ;
#224 = ORIENTED_EDGE ( 'NONE', *, *, #220, .F. ) ;
#225 = FACE_BOUND ( 'NONE', #151, .T. ) ;
#226 = MANIFOLD_SOLID_BREP ( 'Revolve2', #222 ) ;
#227 = ORIENTED_EDGE ( 'NONE', *, *, #220, .T. ) ;
#228 = DIRECTION ( 'NONE',  ( 0.000000000000000000, 0.000000000000000000, 1.000000000000000000 ) ) ;
#229 = CIRCLE ( 'NONE', #3, 10.00000000000000000 ) ;
#230 = CARTESIAN_POINT ( 'NONE',  ( 0.000000000000000000, 0.000000000000000000, 0.000000000000000000 ) ) ;
#231 = DIRECTION ( 'NONE',  ( 1.000000000000000000, 0.000000000000000000, 0.000000000000000000 ) ) ;
#232 = CARTESIAN_POINT ( 'NONE',  ( 4.649999999999999467, 0.000000000000000000, 0.000000000000000000 ) ) ;
#233 = FACE_OUTER_BOUND ( 'NONE', #21, .T. ) ;
#234 = DIRECTION ( 'NONE',  ( 1.000000000000000000, 0.000000000000000000, 0.000000000000000000 ) ) ;
#235 = UNCERTAINTY_MEASURE_WITH_UNIT (LENGTH_MEASURE( 1.000000000000000082E-05 ), #61, 'distance_accuracy_value', 'NONE');
#236 = AXIS2_PLACEMENT_3D ( 'NONE', #44, #67, #209 ) ;
#237 = CARTESIAN_POINT ( 'NONE',  ( 4.649999999999999467, 0.000000000000000000, 7.999999999999994671 ) ) ;
#238 = ADVANCED_FACE ( 'NONE', ( #219, #14 ), #254, .F. ) ;
#239 = UNCERTAINTY_MEASURE_WITH_UNIT (LENGTH_MEASURE( 1.000000000000000082E-05 ), #114, 'distance_accuracy_value', 'NONE');
#240 = EDGE_CURVE ( 'NONE', #121, #121, #248, .T. ) ;
#241 = ORIENTED_EDGE ( 'NONE', *, *, #58, .T. ) ;
#242 = AXIS2_PLACEMENT_3D ( 'NONE', #129, #132, #171 ) ;
#243 = AXIS2_PLACEMENT_3D ( 'NONE', #204, #127, #163 ) ;
#244 = EDGE_LOOP ( 'NONE', ( #65 ) ) ;
#245 = ORIENTED_EDGE ( 'NONE', *, *, #240, .T. ) ;
#246 = ORIENTED_EDGE ( 'NONE', *, *, #213, .T. ) ;
#247 = CYLINDRICAL_SURFACE ( 'NONE', #186, 7.999999999999998224 ) ;
#248 = CIRCLE ( 'NONE', #169, 6.000000000000000000 ) ;
#249 = CARTESIAN_POINT ( 'NONE',  ( 1.500000000000000222, 0.000000000000000000, 0.000000000000000000 ) ) ;
#250 = FACE_BOUND ( 'NONE', #161, .T. ) ;
#251 = DIRECTION ( 'NONE',  ( 0.000000000000000000, 0.000000000000000000, 1.000000000000000000 ) ) ;
#252 = AXIS2_PLACEMENT_3D ( 'NONE', #30, #12, #10 ) ;
#253 = DIRECTION ( 'NONE',  ( 0.000000000000000000, 0.000000000000000000, 1.000000000000000000 ) ) ;
#254 = PLANE ( 'NONE',  #196 ) ;
#255 = PLANE ( 'NONE',  #66 ) ;
#256 = DIRECTION ( 'NONE',  ( -1.000000000000000000, -0.000000000000000000, -0.000000000000000000 ) ) ;
#257 = PRODUCT_DEFINITION_SHAPE ( 'NONE', 'NONE',  #63 ) ;
#258 = DIRECTION ( 'NONE',  ( -1.000000000000000000, 0.000000000000000000, -0.000000000000000000 ) ) ;
#259 = PRODUCT_RELATED_PRODUCT_CATEGORY ( 'part', '', ( #140 ) ) ;
#260 = SURFACE_STYLE_USAGE ( .BOTH. , #16 ) ;
ENDSEC;
END-ISO-10303-21;
