ISO-10303-21;
HEADER;
FILE_DESCRIPTION (( 'STEP AP214' ),
    '1' );
FILE_NAME ('76.04.04.0007.step',
    '2021-04-02T18:04:34',
    ( '' ),
    ( '' ),
    'SwSTEP 2.0',
    'SolidWorks 2021',
    '' );
FILE_SCHEMA (( 'AUTOMOTIVE_DESIGN' ));
ENDSEC;

DATA;
#1 = EDGE_CURVE ( 'NONE', #177, #177, #74, .T. ) ;
#2 = CARTESIAN_POINT ( 'NONE',  ( 4.250000000000001776, 0.000000000000000000, 0.000000000000000000 ) ) ;
#3 = AXIS2_PLACEMENT_3D ( 'NONE', #246, #226, #90 ) ;
#4 = DIRECTION ( 'NONE',  ( 0.000000000000000000, 0.000000000000000000, 1.000000000000000000 ) ) ;
#5 = PLANE ( 'NONE',  #3 ) ;
#6 = DIRECTION ( 'NONE',  ( -1.000000000000000000, -0.000000000000000000, -0.000000000000000000 ) ) ;
#7 = ADVANCED_FACE ( 'NONE', ( #40, #257 ), #238, .F. ) ;
#8 =( NAMED_UNIT ( * ) PLANE_ANGLE_UNIT ( ) SI_UNIT ( $, .RADIAN. ) );
#9 = APPLICATION_CONTEXT ( 'automotive_design' ) ;
#10 = VERTEX_POINT ( 'NONE', #70 ) ;
#11 = ORIENTED_EDGE ( 'NONE', *, *, #107, .T. ) ;
#12 = DIRECTION ( 'NONE',  ( -1.000000000000000000, -0.000000000000000000, -0.000000000000000000 ) ) ;
#13 = ORIENTED_EDGE ( 'NONE', *, *, #79, .T. ) ;
#14 = ADVANCED_FACE ( 'NONE', ( #106, #241 ), #123, .T. ) ;
#15 = ORIENTED_EDGE ( 'NONE', *, *, #162, .F. ) ;
#16 = UNCERTAINTY_MEASURE_WITH_UNIT (LENGTH_MEASURE( 1.000000000000000082E-05 ), #72, 'distance_accuracy_value', 'NONE');
#17 = DIRECTION ( 'NONE',  ( -1.000000000000000000, -0.000000000000000000, -0.000000000000000000 ) ) ;
#18 = CIRCLE ( 'NONE', #52, 6.999999999999995559 ) ;
#19 = PRODUCT_DEFINITION ( 'UNKNOWN', '', #175, #59 ) ;
#20 = FACE_BOUND ( 'NONE', #96, .T. ) ;
#21 = DIRECTION ( 'NONE',  ( -1.000000000000000000, -0.000000000000000000, -0.000000000000000000 ) ) ;
#22 = EDGE_LOOP ( 'NONE', ( #206 ) ) ;
#23 = CIRCLE ( 'NONE', #135, 6.999999999999995559 ) ;
#24 = DIRECTION ( 'NONE',  ( -1.000000000000000000, -0.000000000000000000, -0.000000000000000000 ) ) ;
#25 = DIRECTION ( 'NONE',  ( -1.000000000000000000, -0.000000000000000000, -0.000000000000000000 ) ) ;
#26 =( NAMED_UNIT ( * ) SI_UNIT ( $, .STERADIAN. ) SOLID_ANGLE_UNIT ( ) );
#27 = EDGE_CURVE ( 'NONE', #33, #33, #31, .T. ) ;
#28 = DIRECTION ( 'NONE',  ( -0.000000000000000000, 0.000000000000000000, 1.000000000000000000 ) ) ;
#29 = CARTESIAN_POINT ( 'NONE',  ( 1.250000000000000000, 0.000000000000000000, 0.000000000000000000 ) ) ;
#30 = SURFACE_STYLE_USAGE ( .BOTH. , #229 ) ;
#31 = CIRCLE ( 'NONE', #103, 9.999999999999998224 ) ;
#32 = SURFACE_STYLE_FILL_AREA ( #95 ) ;
#33 = VERTEX_POINT ( 'NONE', #248 ) ;
#34 = DIRECTION ( 'NONE',  ( -1.000000000000000000, -0.000000000000000000, -0.000000000000000000 ) ) ;
#35 = AXIS2_PLACEMENT_3D ( 'NONE', #205, #24, #100 ) ;
#36 = ORIENTED_EDGE ( 'NONE', *, *, #181, .T. ) ;
#37 = SURFACE_SIDE_STYLE ('',( #32 ) ) ;
#38 = CARTESIAN_POINT ( 'NONE',  ( 0.000000000000000000, 0.000000000000000000, 0.000000000000000000 ) ) ;
#39 = PRODUCT_RELATED_PRODUCT_CATEGORY ( 'part', '', ( #86 ) ) ;
#40 = FACE_OUTER_BOUND ( 'NONE', #232, .T. ) ;
#41 = AXIS2_PLACEMENT_3D ( 'NONE', #87, #109, #151 ) ;
#42 = PLANE ( 'NONE',  #172 ) ;
#43 = UNCERTAINTY_MEASURE_WITH_UNIT (LENGTH_MEASURE( 1.000000000000000082E-05 ), #113, 'distance_accuracy_value', 'NONE');
#44 = ORIENTED_EDGE ( 'NONE', *, *, #84, .T. ) ;
#45 = AXIS2_PLACEMENT_3D ( 'NONE', #38, #105, #203 ) ;
#46 = DIRECTION ( 'NONE',  ( 0.000000000000000000, 0.000000000000000000, 1.000000000000000000 ) ) ;
#47 = FACE_OUTER_BOUND ( 'NONE', #60, .T. ) ;
#48 = CIRCLE ( 'NONE', #140, 6.278312163512960176 ) ;
#49 = DIRECTION ( 'NONE',  ( -1.000000000000000000, -0.000000000000000000, -0.000000000000000000 ) ) ;
#50 = ADVANCED_FACE ( 'NONE', ( #188 ), #42, .F. ) ;
#51 = VERTEX_POINT ( 'NONE', #141 ) ;
#52 = AXIS2_PLACEMENT_3D ( 'NONE', #190, #34, #231 ) ;
#53 = DIRECTION ( 'NONE',  ( 0.000000000000000000, 0.000000000000000000, 1.000000000000000000 ) ) ;
#54 = CARTESIAN_POINT ( 'NONE',  ( 35.50000000000000711, 0.000000000000000000, 8.500000000000008882 ) ) ;
#55 = EDGE_LOOP ( 'NONE', ( #15 ) ) ;
#56 = CARTESIAN_POINT ( 'NONE',  ( 4.250000000000001776, 0.000000000000000000, 5.000000000000000000 ) ) ;
#57 = AXIS2_PLACEMENT_3D ( 'NONE', #145, #165, #169 ) ;
#58 = ADVANCED_FACE ( 'NONE', ( #237, #20 ), #115, .T. ) ;
#59 = PRODUCT_DEFINITION_CONTEXT ( 'detailed design', #9, 'design' ) ;
#60 = EDGE_LOOP ( 'NONE', ( #161 ) ) ;
#61 = CARTESIAN_POINT ( 'NONE',  ( 35.50000000000000711, 0.000000000000000000, 0.000000000000000000 ) ) ;
#62 = CARTESIAN_POINT ( 'NONE',  ( 0.000000000000000000, 0.000000000000000000, 0.000000000000000000 ) ) ;
#63 = ORIENTED_EDGE ( 'NONE', *, *, #84, .F. ) ;
#64 = DIRECTION ( 'NONE',  ( -1.000000000000000000, -0.000000000000000000, -0.000000000000000000 ) ) ;
#65 = AXIS2_PLACEMENT_3D ( 'NONE', #153, #49, #46 ) ;
#66 = ADVANCED_FACE ( 'NONE', ( #236, #124 ), #204, .T. ) ;
#67 = DIRECTION ( 'NONE',  ( -1.000000000000000000, 0.000000000000000000, -0.000000000000000000 ) ) ;
#68 = CYLINDRICAL_SURFACE ( 'NONE', #65, 9.999999999999998224 ) ;
#69 = FACE_BOUND ( 'NONE', #139, .T. ) ;
#70 = CARTESIAN_POINT ( 'NONE',  ( 5.500000000000002665, 0.000000000000000000, 6.999999999999995559 ) ) ;
#71 = EDGE_LOOP ( 'NONE', ( #159 ) ) ;
#72 =( LENGTH_UNIT ( ) NAMED_UNIT ( * ) SI_UNIT ( .MILLI., .METRE. ) );
#73 = EDGE_LOOP ( 'NONE', ( #44 ) ) ;
#74 = CIRCLE ( 'NONE', #35, 10.00000000000000000 ) ;
#75 = PRESENTATION_LAYER_ASSIGNMENT (  '', '', ( #235 ) ) ;
#76 = EDGE_LOOP ( 'NONE', ( #143 ) ) ;
#77 = CARTESIAN_POINT ( 'NONE',  ( 4.250000000000001776, 6.999999999999997335, 0.000000000000000000 ) ) ;
#78 = EDGE_LOOP ( 'NONE', ( #36 ) ) ;
#79 = EDGE_CURVE ( 'NONE', #178, #178, #167, .T. ) ;
#80 = AXIS2_PLACEMENT_3D ( 'NONE', #61, #21, #260 ) ;
#81 = EDGE_LOOP ( 'NONE', ( #120 ) ) ;
#82 = PRODUCT_DEFINITION_SHAPE ( 'NONE', 'NONE',  #19 ) ;
#83 = ORIENTED_EDGE ( 'NONE', *, *, #162, .T. ) ;
#84 = EDGE_CURVE ( 'NONE', #51, #51, #48, .T. ) ;
#85 = FACE_OUTER_BOUND ( 'NONE', #258, .T. ) ;
#86 = PRODUCT ( '76.04.04.0007', '76.04.04.0007', '', ( #179 ) ) ;
#87 = CARTESIAN_POINT ( 'NONE',  ( 5.500000000000002665, 0.000000000000000000, 0.000000000000000000 ) ) ;
#88 = ADVANCED_BREP_SHAPE_REPRESENTATION ( '76.04.04.0007', ( #146, #45 ), #195 ) ;
#89 = FACE_OUTER_BOUND ( 'NONE', #200, .T. ) ;
#90 = DIRECTION ( 'NONE',  ( 0.000000000000000000, 0.000000000000000000, -1.000000000000000000 ) ) ;
#91 = AXIS2_PLACEMENT_3D ( 'NONE', #158, #12, #53 ) ;
#92 = FACE_OUTER_BOUND ( 'NONE', #81, .T. ) ;
#93 =( LENGTH_UNIT ( ) NAMED_UNIT ( * ) SI_UNIT ( .MILLI., .METRE. ) );
#94 = EDGE_LOOP ( 'NONE', ( #186 ) ) ;
#95 = FILL_AREA_STYLE ('',( #119 ) ) ;
#96 = EDGE_LOOP ( 'NONE', ( #13 ) ) ;
#97 = CONICAL_SURFACE ( 'NONE', #104, 6.999999999999995559, 0.5235987755983008141 ) ;
#98 = DIRECTION ( 'NONE',  ( 0.000000000000000000, 0.000000000000000000, 1.000000000000000000 ) ) ;
#99 = MECHANICAL_DESIGN_GEOMETRIC_PRESENTATION_REPRESENTATION (  '', ( #235 ), #127 ) ;
#100 = DIRECTION ( 'NONE',  ( 0.000000000000000000, 0.000000000000000000, 1.000000000000000000 ) ) ;
#101 = DIRECTION ( 'NONE',  ( 0.000000000000000000, 0.000000000000000000, 1.000000000000000000 ) ) ;
#102 = ORIENTED_EDGE ( 'NONE', *, *, #1, .F. ) ;
#103 = AXIS2_PLACEMENT_3D ( 'NONE', #121, #17, #148 ) ;
#104 = AXIS2_PLACEMENT_3D ( 'NONE', #29, #155, #150 ) ;
#105 = DIRECTION ( 'NONE',  ( 0.000000000000000000, 0.000000000000000000, 1.000000000000000000 ) ) ;
#106 = FACE_OUTER_BOUND ( 'NONE', #22, .T. ) ;
#107 = EDGE_CURVE ( 'NONE', #234, #234, #154, .T. ) ;
#108 = DIRECTION ( 'NONE',  ( 0.000000000000000000, 0.000000000000000000, 1.000000000000000000 ) ) ;
#109 = DIRECTION ( 'NONE',  ( -1.000000000000000000, -0.000000000000000000, -0.000000000000000000 ) ) ;
#110 = PLANE ( 'NONE',  #242 ) ;
#111 = CARTESIAN_POINT ( 'NONE',  ( 4.250000000000001776, 0.000000000000000000, 0.000000000000000000 ) ) ;
#112 = ADVANCED_FACE ( 'NONE', ( #183, #92 ), #110, .F. ) ;
#113 =( LENGTH_UNIT ( ) NAMED_UNIT ( * ) SI_UNIT ( .MILLI., .METRE. ) );
#114 = AXIS2_PLACEMENT_3D ( 'NONE', #77, #170, #218 ) ;
#115 = CONICAL_SURFACE ( 'NONE', #80, 8.500000000000008882, 0.7853981633974447263 ) ;
#116 = SURFACE_STYLE_USAGE ( .BOTH. , #37 ) ;
#117 = CARTESIAN_POINT ( 'NONE',  ( 34.00000000000000000, 0.000000000000000000, 10.00000000000000000 ) ) ;
#118 = AXIS2_PLACEMENT_3D ( 'NONE', #208, #67, #28 ) ;
#119 = FILL_AREA_STYLE_COLOUR ( '', #223 ) ;
#120 = ORIENTED_EDGE ( 'NONE', *, *, #27, .T. ) ;
#121 = CARTESIAN_POINT ( 'NONE',  ( 33.00000000000000000, 0.000000000000000000, 0.000000000000000000 ) ) ;
#122 = STYLED_ITEM ( 'NONE', ( #192 ), #146 ) ;
#123 = CYLINDRICAL_SURFACE ( 'NONE', #254, 6.999999999999997335 ) ;
#124 = FACE_OUTER_BOUND ( 'NONE', #78, .T. ) ;
#125 = ORIENTED_EDGE ( 'NONE', *, *, #240, .T. ) ;
#126 = EDGE_LOOP ( 'NONE', ( #142 ) ) ;
#127 =( GEOMETRIC_REPRESENTATION_CONTEXT ( 3 ) GLOBAL_UNCERTAINTY_ASSIGNED_CONTEXT ( ( #182 ) ) GLOBAL_UNIT_ASSIGNED_CONTEXT ( ( #93, #8, #199 ) ) REPRESENTATION_CONTEXT ( 'NONE', 'WORKASPACE' ) );
#128 =( NAMED_UNIT ( * ) PLANE_ANGLE_UNIT ( ) SI_UNIT ( $, .RADIAN. ) );
#129 = FILL_AREA_STYLE_COLOUR ( '', #197 ) ;
#130 = FILL_AREA_STYLE ('',( #129 ) ) ;
#131 = ADVANCED_FACE ( 'NONE', ( #69, #245 ), #97, .T. ) ;
#132 = FACE_OUTER_BOUND ( 'NONE', #168, .T. ) ;
#133 = APPLICATION_PROTOCOL_DEFINITION ( 'draft international standard', 'automotive_design', 1998, #9 ) ;
#134 = ADVANCED_FACE ( 'NONE', ( #171, #85 ), #5, .F. ) ;
#135 = AXIS2_PLACEMENT_3D ( 'NONE', #193, #25, #108 ) ;
#136 = CARTESIAN_POINT ( 'NONE',  ( 1.250000000000000000, 0.000000000000000000, 6.999999999999995559 ) ) ;
#137 = VERTEX_POINT ( 'NONE', #56 ) ;
#138 = ORIENTED_EDGE ( 'NONE', *, *, #230, .F. ) ;
#139 = EDGE_LOOP ( 'NONE', ( #63 ) ) ;
#140 = AXIS2_PLACEMENT_3D ( 'NONE', #147, #222, #189 ) ;
#141 = CARTESIAN_POINT ( 'NONE',  ( 2.417362408540965428E-16, 0.000000000000000000, 6.278312163512960176 ) ) ;
#142 = ORIENTED_EDGE ( 'NONE', *, *, #27, .F. ) ;
#143 = ORIENTED_EDGE ( 'NONE', *, *, #181, .F. ) ;
#144 = DIRECTION ( 'NONE',  ( -1.000000000000000000, -0.000000000000000000, -0.000000000000000000 ) ) ;
#145 = CARTESIAN_POINT ( 'NONE',  ( 35.50000000000000711, 0.000000000000000000, 0.000000000000000000 ) ) ;
#146 = MANIFOLD_SOLID_BREP ( 'Revolve2', #194 ) ;
#147 = CARTESIAN_POINT ( 'NONE',  ( 2.417362408540965428E-16, 0.000000000000000000, 0.000000000000000000 ) ) ;
#148 = DIRECTION ( 'NONE',  ( 0.000000000000000000, 0.000000000000000000, 1.000000000000000000 ) ) ;
#149 = AXIS2_PLACEMENT_3D ( 'NONE', #111, #6, #4 ) ;
#150 = DIRECTION ( 'NONE',  ( 0.000000000000000000, 0.000000000000000000, -1.000000000000000000 ) ) ;
#151 = DIRECTION ( 'NONE',  ( 0.000000000000000000, 0.000000000000000000, 1.000000000000000000 ) ) ;
#152 = ADVANCED_FACE ( 'NONE', ( #47 ), #156, .F. ) ;
#153 = CARTESIAN_POINT ( 'NONE',  ( 0.000000000000000000, 0.000000000000000000, 0.000000000000000000 ) ) ;
#154 = CIRCLE ( 'NONE', #187, 6.999999999999997335 ) ;
#155 = DIRECTION ( 'NONE',  ( 1.000000000000000000, 0.000000000000000000, 0.000000000000000000 ) ) ;
#156 = PLANE ( 'NONE',  #118 ) ;
#157 = PRESENTATION_LAYER_ASSIGNMENT (  '', '', ( #122 ) ) ;
#158 = CARTESIAN_POINT ( 'NONE',  ( 33.00000000000000000, 0.000000000000000000, 0.000000000000000000 ) ) ;
#159 = ORIENTED_EDGE ( 'NONE', *, *, #247, .F. ) ;
#160 =( NAMED_UNIT ( * ) SI_UNIT ( $, .STERADIAN. ) SOLID_ANGLE_UNIT ( ) );
#161 = ORIENTED_EDGE ( 'NONE', *, *, #79, .F. ) ;
#162 = EDGE_CURVE ( 'NONE', #137, #137, #259, .T. ) ;
#163 = AXIS2_PLACEMENT_3D ( 'NONE', #191, #176, #227 ) ;
#164 = ORIENTED_EDGE ( 'NONE', *, *, #1, .T. ) ;
#165 = DIRECTION ( 'NONE',  ( -1.000000000000000000, -0.000000000000000000, -0.000000000000000000 ) ) ;
#166 = DIRECTION ( 'NONE',  ( 0.000000000000000000, 0.000000000000000000, 1.000000000000000000 ) ) ;
#167 = CIRCLE ( 'NONE', #57, 8.500000000000008882 ) ;
#168 = EDGE_LOOP ( 'NONE', ( #138 ) ) ;
#169 = DIRECTION ( 'NONE',  ( 0.000000000000000000, 0.000000000000000000, 1.000000000000000000 ) ) ;
#170 = DIRECTION ( 'NONE',  ( -1.000000000000000000, 0.000000000000000000, -0.000000000000000000 ) ) ;
#171 = FACE_BOUND ( 'NONE', #76, .T. ) ;
#172 = AXIS2_PLACEMENT_3D ( 'NONE', #221, #202, #256 ) ;
#173 = SURFACE_STYLE_FILL_AREA ( #130 ) ;
#174 = FACE_OUTER_BOUND ( 'NONE', #126, .T. ) ;
#175 = PRODUCT_DEFINITION_FORMATION_WITH_SPECIFIED_SOURCE ( 'ANY', '', #86, .NOT_KNOWN. ) ;
#176 = DIRECTION ( 'NONE',  ( -1.000000000000000000, -0.000000000000000000, -0.000000000000000000 ) ) ;
#177 = VERTEX_POINT ( 'NONE', #117 ) ;
#178 = VERTEX_POINT ( 'NONE', #54 ) ;
#179 = PRODUCT_CONTEXT ( 'NONE', #239, 'mechanical' ) ;
#180 =( NAMED_UNIT ( * ) PLANE_ANGLE_UNIT ( ) SI_UNIT ( $, .RADIAN. ) );
#181 = EDGE_CURVE ( 'NONE', #250, #250, #217, .T. ) ;
#182 = UNCERTAINTY_MEASURE_WITH_UNIT (LENGTH_MEASURE( 1.000000000000000082E-05 ), #93, 'distance_accuracy_value', 'NONE');
#183 = FACE_BOUND ( 'NONE', #71, .T. ) ;
#184 = SHAPE_DEFINITION_REPRESENTATION ( #82, #88 ) ;
#185 = ORIENTED_EDGE ( 'NONE', *, *, #247, .T. ) ;
#186 = ORIENTED_EDGE ( 'NONE', *, *, #230, .T. ) ;
#187 = AXIS2_PLACEMENT_3D ( 'NONE', #2, #224, #98 ) ;
#188 = FACE_OUTER_BOUND ( 'NONE', #73, .T. ) ;
#189 = DIRECTION ( 'NONE',  ( 0.000000000000000000, 0.000000000000000000, 1.000000000000000000 ) ) ;
#190 = CARTESIAN_POINT ( 'NONE',  ( 5.500000000000002665, 0.000000000000000000, 0.000000000000000000 ) ) ;
#191 = CARTESIAN_POINT ( 'NONE',  ( 0.000000000000000000, 0.000000000000000000, 0.000000000000000000 ) ) ;
#192 = PRESENTATION_STYLE_ASSIGNMENT (( #30 ) ) ;
#193 = CARTESIAN_POINT ( 'NONE',  ( 1.250000000000000000, 0.000000000000000000, 0.000000000000000000 ) ) ;
#194 = CLOSED_SHELL ( 'NONE', ( #152, #58, #225, #112, #14, #134, #66, #7, #213, #131, #50 ) ) ;
#195 =( GEOMETRIC_REPRESENTATION_CONTEXT ( 3 ) GLOBAL_UNCERTAINTY_ASSIGNED_CONTEXT ( ( #16 ) ) GLOBAL_UNIT_ASSIGNED_CONTEXT ( ( #72, #180, #160 ) ) REPRESENTATION_CONTEXT ( 'NONE', 'WORKASPACE' ) );
#196 = CARTESIAN_POINT ( 'NONE',  ( 33.00000000000000000, 0.000000000000000000, 7.000000000000000000 ) ) ;
#197 = COLOUR_RGB ( '',0.8274509803921568096, 0.8392156862745098200, 0.8274509803921568096 ) ;
#198 = VERTEX_POINT ( 'NONE', #196 ) ;
#199 =( NAMED_UNIT ( * ) SI_UNIT ( $, .STERADIAN. ) SOLID_ANGLE_UNIT ( ) );
#200 = EDGE_LOOP ( 'NONE', ( #11 ) ) ;
#201 = CARTESIAN_POINT ( 'NONE',  ( 0.000000000000000000, 0.000000000000000000, 0.000000000000000000 ) ) ;
#202 = DIRECTION ( 'NONE',  ( 1.000000000000000000, 0.000000000000000000, 0.000000000000000000 ) ) ;
#203 = DIRECTION ( 'NONE',  ( 1.000000000000000000, 0.000000000000000000, 0.000000000000000000 ) ) ;
#204 = CYLINDRICAL_SURFACE ( 'NONE', #255, 5.000000000000000000 ) ;
#205 = CARTESIAN_POINT ( 'NONE',  ( 34.00000000000000000, 0.000000000000000000, 0.000000000000000000 ) ) ;
#206 = ORIENTED_EDGE ( 'NONE', *, *, #240, .F. ) ;
#207 = CARTESIAN_POINT ( 'NONE',  ( 33.00000000000000000, 9.999999999999998224, 0.000000000000000000 ) ) ;
#208 = CARTESIAN_POINT ( 'NONE',  ( 35.50000000000000711, 0.000000000000000000, 0.000000000000000000 ) ) ;
#209 = DIRECTION ( 'NONE',  ( 1.000000000000000000, 0.000000000000000000, 0.000000000000000000 ) ) ;
#210 = CYLINDRICAL_SURFACE ( 'NONE', #163, 6.999999999999996447 ) ;
#211 = CIRCLE ( 'NONE', #91, 7.000000000000000000 ) ;
#212 = CARTESIAN_POINT ( 'NONE',  ( 5.500000000000002665, 0.000000000000000000, 5.000000000000000000 ) ) ;
#213 = ADVANCED_FACE ( 'NONE', ( #132, #89 ), #210, .T. ) ;
#214 = VERTEX_POINT ( 'NONE', #136 ) ;
#215 = EDGE_LOOP ( 'NONE', ( #164 ) ) ;
#216 = ORIENTED_EDGE ( 'NONE', *, *, #107, .F. ) ;
#217 = CIRCLE ( 'NONE', #41, 5.000000000000000000 ) ;
#218 = DIRECTION ( 'NONE',  ( -0.000000000000000000, 0.000000000000000000, 1.000000000000000000 ) ) ;
#219 =( GEOMETRIC_REPRESENTATION_CONTEXT ( 3 ) GLOBAL_UNCERTAINTY_ASSIGNED_CONTEXT ( ( #43 ) ) GLOBAL_UNIT_ASSIGNED_CONTEXT ( ( #113, #128, #26 ) ) REPRESENTATION_CONTEXT ( 'NONE', 'WORKASPACE' ) );
#220 = EDGE_LOOP ( 'NONE', ( #83 ) ) ;
#221 = CARTESIAN_POINT ( 'NONE',  ( 1.208681204270482714E-16, 6.278312163512960176, 0.000000000000000000 ) ) ;
#222 = DIRECTION ( 'NONE',  ( -1.000000000000000000, -0.000000000000000000, -0.000000000000000000 ) ) ;
#223 = COLOUR_RGB ( '',0.8274509803921568096, 0.8392156862745098200, 0.8274509803921568096 ) ;
#224 = DIRECTION ( 'NONE',  ( -1.000000000000000000, -0.000000000000000000, -0.000000000000000000 ) ) ;
#225 = ADVANCED_FACE ( 'NONE', ( #174, #244 ), #68, .T. ) ;
#226 = DIRECTION ( 'NONE',  ( 1.000000000000000000, 0.000000000000000000, 0.000000000000000000 ) ) ;
#227 = DIRECTION ( 'NONE',  ( 0.000000000000000000, 0.000000000000000000, 1.000000000000000000 ) ) ;
#228 = MECHANICAL_DESIGN_GEOMETRIC_PRESENTATION_REPRESENTATION (  '', ( #122 ), #219 ) ;
#229 = SURFACE_SIDE_STYLE ('',( #173 ) ) ;
#230 = EDGE_CURVE ( 'NONE', #214, #214, #23, .T. ) ;
#231 = DIRECTION ( 'NONE',  ( 0.000000000000000000, 0.000000000000000000, 1.000000000000000000 ) ) ;
#232 = EDGE_LOOP ( 'NONE', ( #216 ) ) ;
#233 = APPLICATION_PROTOCOL_DEFINITION ( 'draft international standard', 'automotive_design', 1998, #239 ) ;
#234 = VERTEX_POINT ( 'NONE', #251 ) ;
#235 = STYLED_ITEM ( 'NONE', ( #253 ), #88 ) ;
#236 = FACE_OUTER_BOUND ( 'NONE', #55, .T. ) ;
#237 = FACE_OUTER_BOUND ( 'NONE', #249, .T. ) ;
#238 = PLANE ( 'NONE',  #114 ) ;
#239 = APPLICATION_CONTEXT ( 'automotive_design' ) ;
#240 = EDGE_CURVE ( 'NONE', #10, #10, #18, .T. ) ;
#241 = FACE_OUTER_BOUND ( 'NONE', #252, .T. ) ;
#242 = AXIS2_PLACEMENT_3D ( 'NONE', #207, #209, #243 ) ;
#243 = DIRECTION ( 'NONE',  ( 0.000000000000000000, 0.000000000000000000, -1.000000000000000000 ) ) ;
#244 = FACE_OUTER_BOUND ( 'NONE', #215, .T. ) ;
#245 = FACE_OUTER_BOUND ( 'NONE', #94, .T. ) ;
#246 = CARTESIAN_POINT ( 'NONE',  ( 5.500000000000002665, 5.000000000000000000, 0.000000000000000000 ) ) ;
#247 = EDGE_CURVE ( 'NONE', #198, #198, #211, .T. ) ;
#248 = CARTESIAN_POINT ( 'NONE',  ( 33.00000000000000000, 0.000000000000000000, 9.999999999999998224 ) ) ;
#249 = EDGE_LOOP ( 'NONE', ( #102 ) ) ;
#250 = VERTEX_POINT ( 'NONE', #212 ) ;
#251 = CARTESIAN_POINT ( 'NONE',  ( 4.250000000000001776, 0.000000000000000000, 6.999999999999997335 ) ) ;
#252 = EDGE_LOOP ( 'NONE', ( #185 ) ) ;
#253 = PRESENTATION_STYLE_ASSIGNMENT (( #116 ) ) ;
#254 = AXIS2_PLACEMENT_3D ( 'NONE', #201, #144, #166 ) ;
#255 = AXIS2_PLACEMENT_3D ( 'NONE', #62, #64, #101 ) ;
#256 = DIRECTION ( 'NONE',  ( 0.000000000000000000, 0.000000000000000000, -1.000000000000000000 ) ) ;
#257 = FACE_BOUND ( 'NONE', #220, .T. ) ;
#258 = EDGE_LOOP ( 'NONE', ( #125 ) ) ;
#259 = CIRCLE ( 'NONE', #149, 5.000000000000000000 ) ;
#260 = DIRECTION ( 'NONE',  ( 0.000000000000000000, 0.000000000000000000, 1.000000000000000000 ) ) ;
ENDSEC;
END-ISO-10303-21;
