ISO-10303-21;
HEADER;
FILE_DESCRIPTION (( 'STEP AP214' ),
    '1' );
FILE_NAME ('76.04.04.0004.step',
    '2021-04-02T18:04:28',
    ( '' ),
    ( '' ),
    'SwSTEP 2.0',
    'SolidWorks 2021',
    '' );
FILE_SCHEMA (( 'AUTOMOTIVE_DESIGN' ));
ENDSEC;

DATA;
#1 = MECHANICAL_DESIGN_GEOMETRIC_PRESENTATION_REPRESENTATION (  '', ( #95 ), #66 ) ;
#2 = EDGE_LOOP ( 'NONE', ( #209 ) ) ;
#3 = EDGE_LOOP ( 'NONE', ( #165 ) ) ;
#4 =( LENGTH_UNIT ( ) NAMED_UNIT ( * ) SI_UNIT ( .MILLI., .METRE. ) );
#5 = AXIS2_PLACEMENT_3D ( 'NONE', #162, #138, #179 ) ;
#6 = FACE_OUTER_BOUND ( 'NONE', #45, .T. ) ;
#7 = FACE_OUTER_BOUND ( 'NONE', #43, .T. ) ;
#8 = ADVANCED_FACE ( 'NONE', ( #187 ), #88, .F. ) ;
#9 = CYLINDRICAL_SURFACE ( 'NONE', #190, 3.999999999999996447 ) ;
#10 = CARTESIAN_POINT ( 'NONE',  ( 0.000000000000000000, 0.000000000000000000, 0.000000000000000000 ) ) ;
#11 =( GEOMETRIC_REPRESENTATION_CONTEXT ( 3 ) GLOBAL_UNCERTAINTY_ASSIGNED_CONTEXT ( ( #54 ) ) GLOBAL_UNIT_ASSIGNED_CONTEXT ( ( #41, #225, #83 ) ) REPRESENTATION_CONTEXT ( 'NONE', 'WORKASPACE' ) );
#12 = DIRECTION ( 'NONE',  ( 0.000000000000000000, 0.000000000000000000, -1.000000000000000000 ) ) ;
#13 = DIRECTION ( 'NONE',  ( 1.000000000000000000, 0.000000000000000000, 0.000000000000000000 ) ) ;
#14 = VERTEX_POINT ( 'NONE', #118 ) ;
#15 =( LENGTH_UNIT ( ) NAMED_UNIT ( * ) SI_UNIT ( .MILLI., .METRE. ) );
#16 = ADVANCED_BREP_SHAPE_REPRESENTATION ( '76.04.04.0004', ( #224, #150 ), #11 ) ;
#17 = DIRECTION ( 'NONE',  ( 0.000000000000000000, 0.000000000000000000, 1.000000000000000000 ) ) ;
#18 = VERTEX_POINT ( 'NONE', #221 ) ;
#19 = PRODUCT_DEFINITION_CONTEXT ( 'detailed design', #143, 'design' ) ;
#20 =( NAMED_UNIT ( * ) SI_UNIT ( $, .STERADIAN. ) SOLID_ANGLE_UNIT ( ) );
#21 = FILL_AREA_STYLE_COLOUR ( '', #159 ) ;
#22 = AXIS2_PLACEMENT_3D ( 'NONE', #152, #130, #173 ) ;
#23 =( NAMED_UNIT ( * ) SI_UNIT ( $, .STERADIAN. ) SOLID_ANGLE_UNIT ( ) );
#24 = ORIENTED_EDGE ( 'NONE', *, *, #200, .T. ) ;
#25 = EDGE_LOOP ( 'NONE', ( #229 ) ) ;
#26 = AXIS2_PLACEMENT_3D ( 'NONE', #139, #119, #259 ) ;
#27 = ORIENTED_EDGE ( 'NONE', *, *, #120, .T. ) ;
#28 = DIRECTION ( 'NONE',  ( 0.000000000000000000, 0.000000000000000000, 1.000000000000000000 ) ) ;
#29 = DIRECTION ( 'NONE',  ( 1.000000000000000000, 0.000000000000000000, 0.000000000000000000 ) ) ;
#30 = CIRCLE ( 'NONE', #101, 5.999999999999997335 ) ;
#31 = CARTESIAN_POINT ( 'NONE',  ( 22.00000000000000000, 0.000000000000000000, 0.000000000000000000 ) ) ;
#32 = PLANE ( 'NONE',  #217 ) ;
#33 = CARTESIAN_POINT ( 'NONE',  ( 3.499999999999999556, 3.000000000000000000, 0.000000000000000000 ) ) ;
#34 = UNCERTAINTY_MEASURE_WITH_UNIT (LENGTH_MEASURE( 1.000000000000000082E-05 ), #4, 'distance_accuracy_value', 'NONE');
#35 = CARTESIAN_POINT ( 'NONE',  ( 6.212070012240231440E-16, 0.000000000000000000, 3.422649730810367164 ) ) ;
#36 = AXIS2_PLACEMENT_3D ( 'NONE', #153, #238, #133 ) ;
#37 = FACE_BOUND ( 'NONE', #81, .T. ) ;
#38 = PRODUCT_DEFINITION_SHAPE ( 'NONE', 'NONE',  #70 ) ;
#39 = FACE_OUTER_BOUND ( 'NONE', #144, .T. ) ;
#40 = PRESENTATION_LAYER_ASSIGNMENT (  '', '', ( #44 ) ) ;
#41 =( LENGTH_UNIT ( ) NAMED_UNIT ( * ) SI_UNIT ( .MILLI., .METRE. ) );
#42 = EDGE_LOOP ( 'NONE', ( #186 ) ) ;
#43 = EDGE_LOOP ( 'NONE', ( #27 ) ) ;
#44 = STYLED_ITEM ( 'NONE', ( #60 ), #16 ) ;
#45 = EDGE_LOOP ( 'NONE', ( #163 ) ) ;
#46 = FACE_BOUND ( 'NONE', #208, .T. ) ;
#47 = ADVANCED_FACE ( 'NONE', ( #46, #6 ), #32, .F. ) ;
#48 = DIRECTION ( 'NONE',  ( 0.000000000000000000, 0.000000000000000000, 1.000000000000000000 ) ) ;
#49 = DIRECTION ( 'NONE',  ( -1.000000000000000000, -0.000000000000000000, -0.000000000000000000 ) ) ;
#50 = DIRECTION ( 'NONE',  ( 0.000000000000000000, 0.000000000000000000, -1.000000000000000000 ) ) ;
#51 = FACE_OUTER_BOUND ( 'NONE', #231, .T. ) ;
#52 = CYLINDRICAL_SURFACE ( 'NONE', #110, 3.000000000000000000 ) ;
#53 = VERTEX_POINT ( 'NONE', #135 ) ;
#54 = UNCERTAINTY_MEASURE_WITH_UNIT (LENGTH_MEASURE( 1.000000000000000082E-05 ), #41, 'distance_accuracy_value', 'NONE');
#55 =( NAMED_UNIT ( * ) PLANE_ANGLE_UNIT ( ) SI_UNIT ( $, .RADIAN. ) );
#56 = SURFACE_SIDE_STYLE ('',( #243 ) ) ;
#57 = EDGE_CURVE ( 'NONE', #223, #223, #106, .T. ) ;
#58 = SURFACE_STYLE_USAGE ( .BOTH. , #56 ) ;
#59 = ORIENTED_EDGE ( 'NONE', *, *, #120, .F. ) ;
#60 = PRESENTATION_STYLE_ASSIGNMENT (( #182 ) ) ;
#61 = EDGE_CURVE ( 'NONE', #161, #161, #114, .T. ) ;
#62 = CIRCLE ( 'NONE', #145, 3.999999999999996447 ) ;
#63 = EDGE_LOOP ( 'NONE', ( #125 ) ) ;
#64 = ORIENTED_EDGE ( 'NONE', *, *, #61, .F. ) ;
#65 = DIRECTION ( 'NONE',  ( 0.000000000000000000, 0.000000000000000000, 1.000000000000000000 ) ) ;
#66 =( GEOMETRIC_REPRESENTATION_CONTEXT ( 3 ) GLOBAL_UNCERTAINTY_ASSIGNED_CONTEXT ( ( #204 ) ) GLOBAL_UNIT_ASSIGNED_CONTEXT ( ( #15, #55, #20 ) ) REPRESENTATION_CONTEXT ( 'NONE', 'WORKASPACE' ) );
#67 = DIRECTION ( 'NONE',  ( -1.000000000000000000, -0.000000000000000000, -0.000000000000000000 ) ) ;
#68 = PRODUCT ( '76.04.04.0004', '76.04.04.0004', '', ( #104 ) ) ;
#69 = DIRECTION ( 'NONE',  ( -1.000000000000000000, -0.000000000000000000, -0.000000000000000000 ) ) ;
#70 = PRODUCT_DEFINITION ( 'UNKNOWN', '', #230, #19 ) ;
#71 = FACE_OUTER_BOUND ( 'NONE', #86, .T. ) ;
#72 = APPLICATION_CONTEXT ( 'automotive_design' ) ;
#73 = CIRCLE ( 'NONE', #22, 3.422649730810367164 ) ;
#74 = DIRECTION ( 'NONE',  ( 1.000000000000000000, 0.000000000000000000, 0.000000000000000000 ) ) ;
#75 = EDGE_CURVE ( 'NONE', #181, #181, #62, .T. ) ;
#76 = CARTESIAN_POINT ( 'NONE',  ( 20.99999999999999645, 0.000000000000000000, 5.999999999999997335 ) ) ;
#77 = DIRECTION ( 'NONE',  ( -1.000000000000000000, -0.000000000000000000, -0.000000000000000000 ) ) ;
#78 = CARTESIAN_POINT ( 'NONE',  ( 20.99999999999999645, 0.000000000000000000, 0.000000000000000000 ) ) ;
#79 = CARTESIAN_POINT ( 'NONE',  ( 2.559999999999999609, 3.999999999999996447, 0.000000000000000000 ) ) ;
#80 = FILL_AREA_STYLE ('',( #21 ) ) ;
#81 = EDGE_LOOP ( 'NONE', ( #234 ) ) ;
#82 = EDGE_CURVE ( 'NONE', #96, #96, #30, .T. ) ;
#83 =( NAMED_UNIT ( * ) SI_UNIT ( $, .STERADIAN. ) SOLID_ANGLE_UNIT ( ) );
#84 = EDGE_LOOP ( 'NONE', ( #212 ) ) ;
#85 = CARTESIAN_POINT ( 'NONE',  ( 0.000000000000000000, 0.000000000000000000, 0.000000000000000000 ) ) ;
#86 = EDGE_LOOP ( 'NONE', ( #109 ) ) ;
#87 = DIRECTION ( 'NONE',  ( 1.000000000000000000, 0.000000000000000000, 0.000000000000000000 ) ) ;
#88 = PLANE ( 'NONE',  #194 ) ;
#89 = DIRECTION ( 'NONE',  ( -1.000000000000000000, -0.000000000000000000, -0.000000000000000000 ) ) ;
#90 = CARTESIAN_POINT ( 'NONE',  ( 20.00000000000000000, 0.000000000000000000, 0.000000000000000000 ) ) ;
#91 = CIRCLE ( 'NONE', #184, 5.999999999999997335 ) ;
#92 = FACE_OUTER_BOUND ( 'NONE', #2, .T. ) ;
#93 = DIRECTION ( 'NONE',  ( -1.000000000000000000, -0.000000000000000000, -0.000000000000000000 ) ) ;
#94 = CARTESIAN_POINT ( 'NONE',  ( 20.00000000000000000, 5.999999999999997335, 0.000000000000000000 ) ) ;
#95 = STYLED_ITEM ( 'NONE', ( #258 ), #224 ) ;
#96 = VERTEX_POINT ( 'NONE', #203 ) ;
#97 = PRESENTATION_LAYER_ASSIGNMENT (  '', '', ( #95 ) ) ;
#98 = ADVANCED_FACE ( 'NONE', ( #235, #7 ), #9, .T. ) ;
#99 = FACE_OUTER_BOUND ( 'NONE', #107, .T. ) ;
#100 = DIRECTION ( 'NONE',  ( -0.000000000000000000, 0.000000000000000000, 1.000000000000000000 ) ) ;
#101 = AXIS2_PLACEMENT_3D ( 'NONE', #90, #69, #192 ) ;
#102 = FACE_BOUND ( 'NONE', #25, .T. ) ;
#103 = APPLICATION_PROTOCOL_DEFINITION ( 'draft international standard', 'automotive_design', 1998, #143 ) ;
#104 = PRODUCT_CONTEXT ( 'NONE', #72, 'mechanical' ) ;
#105 = EDGE_LOOP ( 'NONE', ( #169 ) ) ;
#106 = CIRCLE ( 'NONE', #239, 5.000000000000002665 ) ;
#107 = EDGE_LOOP ( 'NONE', ( #128 ) ) ;
#108 = EDGE_LOOP ( 'NONE', ( #205 ) ) ;
#109 = ORIENTED_EDGE ( 'NONE', *, *, #206, .T. ) ;
#110 = AXIS2_PLACEMENT_3D ( 'NONE', #175, #254, #131 ) ;
#111 = AXIS2_PLACEMENT_3D ( 'NONE', #10, #93, #253 ) ;
#112 = CYLINDRICAL_SURFACE ( 'NONE', #111, 5.999999999999997335 ) ;
#113 = DIRECTION ( 'NONE',  ( 0.000000000000000000, 0.000000000000000000, 1.000000000000000000 ) ) ;
#114 = CIRCLE ( 'NONE', #260, 3.999999999999995559 ) ;
#115 = CARTESIAN_POINT ( 'NONE',  ( 20.00000000000000000, 0.000000000000000000, 0.000000000000000000 ) ) ;
#116 = FACE_OUTER_BOUND ( 'NONE', #189, .T. ) ;
#117 = FILL_AREA_STYLE ('',( #178 ) ) ;
#118 = CARTESIAN_POINT ( 'NONE',  ( 3.499999999999999556, 0.000000000000000000, 3.000000000000000000 ) ) ;
#119 = DIRECTION ( 'NONE',  ( -1.000000000000000000, -0.000000000000000000, -0.000000000000000000 ) ) ;
#120 = EDGE_CURVE ( 'NONE', #18, #18, #136, .T. ) ;
#121 = CARTESIAN_POINT ( 'NONE',  ( 2.559999999999999609, 0.000000000000000000, 3.999999999999996447 ) ) ;
#122 = VERTEX_POINT ( 'NONE', #35 ) ;
#123 = AXIS2_PLACEMENT_3D ( 'NONE', #79, #201, #100 ) ;
#124 = EDGE_CURVE ( 'NONE', #122, #122, #73, .T. ) ;
#125 = ORIENTED_EDGE ( 'NONE', *, *, #206, .F. ) ;
#126 = APPLICATION_PROTOCOL_DEFINITION ( 'draft international standard', 'automotive_design', 1998, #72 ) ;
#127 = SHAPE_DEFINITION_REPRESENTATION ( #38, #16 ) ;
#128 = ORIENTED_EDGE ( 'NONE', *, *, #75, .T. ) ;
#129 = AXIS2_PLACEMENT_3D ( 'NONE', #115, #250, #172 ) ;
#130 = DIRECTION ( 'NONE',  ( -1.000000000000000000, -0.000000000000000000, -0.000000000000000000 ) ) ;
#131 = DIRECTION ( 'NONE',  ( 0.000000000000000000, 0.000000000000000000, 1.000000000000000000 ) ) ;
#132 = FACE_OUTER_BOUND ( 'NONE', #227, .T. ) ;
#133 = DIRECTION ( 'NONE',  ( 0.000000000000000000, 0.000000000000000000, 1.000000000000000000 ) ) ;
#134 = CARTESIAN_POINT ( 'NONE',  ( 2.559999999999999609, 0.000000000000000000, 0.000000000000000000 ) ) ;
#135 = CARTESIAN_POINT ( 'NONE',  ( 3.499999999999999556, 0.000000000000000000, 3.999999999999995559 ) ) ;
#136 = CIRCLE ( 'NONE', #129, 3.999999999999998224 ) ;
#137 = CYLINDRICAL_SURFACE ( 'NONE', #251, 3.999999999999996447 ) ;
#138 = DIRECTION ( 'NONE',  ( -1.000000000000000000, -0.000000000000000000, -0.000000000000000000 ) ) ;
#139 = CARTESIAN_POINT ( 'NONE',  ( 3.499999999999999556, 0.000000000000000000, 0.000000000000000000 ) ) ;
#140 = AXIS2_PLACEMENT_3D ( 'NONE', #31, #197, #213 ) ;
#141 = MECHANICAL_DESIGN_GEOMETRIC_PRESENTATION_REPRESENTATION (  '', ( #44 ), #180 ) ;
#142 = ADVANCED_FACE ( 'NONE', ( #216, #116 ), #236, .F. ) ;
#143 = APPLICATION_CONTEXT ( 'automotive_design' ) ;
#144 = EDGE_LOOP ( 'NONE', ( #185 ) ) ;
#145 = AXIS2_PLACEMENT_3D ( 'NONE', #191, #156, #151 ) ;
#146 = ORIENTED_EDGE ( 'NONE', *, *, #233, .T. ) ;
#147 = EDGE_LOOP ( 'NONE', ( #246 ) ) ;
#148 = ADVANCED_FACE ( 'NONE', ( #92, #132 ), #52, .T. ) ;
#149 = CARTESIAN_POINT ( 'NONE',  ( 22.00000000000000000, 0.000000000000000000, 0.000000000000000000 ) ) ;
#150 = AXIS2_PLACEMENT_3D ( 'NONE', #85, #228, #87 ) ;
#151 = DIRECTION ( 'NONE',  ( 0.000000000000000000, 0.000000000000000000, 1.000000000000000000 ) ) ;
#152 = CARTESIAN_POINT ( 'NONE',  ( 6.212070012240231440E-16, 0.000000000000000000, 0.000000000000000000 ) ) ;
#153 = CARTESIAN_POINT ( 'NONE',  ( 3.499999999999999556, 0.000000000000000000, 0.000000000000000000 ) ) ;
#154 = EDGE_CURVE ( 'NONE', #240, #240, #222, .T. ) ;
#155 = CIRCLE ( 'NONE', #26, 3.999999999999995559 ) ;
#156 = DIRECTION ( 'NONE',  ( -1.000000000000000000, -0.000000000000000000, -0.000000000000000000 ) ) ;
#157 = CARTESIAN_POINT ( 'NONE',  ( 0.000000000000000000, 0.000000000000000000, 0.000000000000000000 ) ) ;
#158 = DIRECTION ( 'NONE',  ( -1.000000000000000000, -0.000000000000000000, -0.000000000000000000 ) ) ;
#159 = COLOUR_RGB ( '',0.8274509803921568096, 0.8392156862745098200, 0.8274509803921568096 ) ;
#160 = PLANE ( 'NONE',  #123 ) ;
#161 = VERTEX_POINT ( 'NONE', #219 ) ;
#162 = CARTESIAN_POINT ( 'NONE',  ( 22.00000000000000000, 0.000000000000000000, 0.000000000000000000 ) ) ;
#163 = ORIENTED_EDGE ( 'NONE', *, *, #82, .T. ) ;
#164 = SURFACE_STYLE_FILL_AREA ( #80 ) ;
#165 = ORIENTED_EDGE ( 'NONE', *, *, #200, .F. ) ;
#166 = ADVANCED_FACE ( 'NONE', ( #170 ), #215, .F. ) ;
#167 = ORIENTED_EDGE ( 'NONE', *, *, #61, .T. ) ;
#168 = CARTESIAN_POINT ( 'NONE',  ( 3.106035006120115720E-16, 3.422649730810367164, 0.000000000000000000 ) ) ;
#169 = ORIENTED_EDGE ( 'NONE', *, *, #124, .F. ) ;
#170 = FACE_OUTER_BOUND ( 'NONE', #147, .T. ) ;
#171 = CARTESIAN_POINT ( 'NONE',  ( 1.000000000000000222, 0.000000000000000000, 0.000000000000000000 ) ) ;
#172 = DIRECTION ( 'NONE',  ( 0.000000000000000000, 0.000000000000000000, 1.000000000000000000 ) ) ;
#173 = DIRECTION ( 'NONE',  ( 0.000000000000000000, 0.000000000000000000, 1.000000000000000000 ) ) ;
#174 = ADVANCED_FACE ( 'NONE', ( #214, #51 ), #244, .T. ) ;
#175 = CARTESIAN_POINT ( 'NONE',  ( 0.000000000000000000, 0.000000000000000000, 0.000000000000000000 ) ) ;
#176 = CARTESIAN_POINT ( 'NONE',  ( 2.559999999999999609, 0.000000000000000000, 3.000000000000000000 ) ) ;
#177 = ADVANCED_FACE ( 'NONE', ( #193, #71 ), #112, .T. ) ;
#178 = FILL_AREA_STYLE_COLOUR ( '', #195 ) ;
#179 = DIRECTION ( 'NONE',  ( 0.000000000000000000, 0.000000000000000000, 1.000000000000000000 ) ) ;
#180 =( GEOMETRIC_REPRESENTATION_CONTEXT ( 3 ) GLOBAL_UNCERTAINTY_ASSIGNED_CONTEXT ( ( #34 ) ) GLOBAL_UNIT_ASSIGNED_CONTEXT ( ( #4, #188, #23 ) ) REPRESENTATION_CONTEXT ( 'NONE', 'WORKASPACE' ) );
#181 = VERTEX_POINT ( 'NONE', #121 ) ;
#182 = SURFACE_STYLE_USAGE ( .BOTH. , #245 ) ;
#183 = CLOSED_SHELL ( 'NONE', ( #166, #226, #177, #47, #98, #142, #148, #220, #211, #174, #8 ) ) ;
#184 = AXIS2_PLACEMENT_3D ( 'NONE', #78, #158, #17 ) ;
#185 = ORIENTED_EDGE ( 'NONE', *, *, #75, .F. ) ;
#186 = ORIENTED_EDGE ( 'NONE', *, *, #82, .F. ) ;
#187 = FACE_OUTER_BOUND ( 'NONE', #108, .T. ) ;
#188 =( NAMED_UNIT ( * ) PLANE_ANGLE_UNIT ( ) SI_UNIT ( $, .RADIAN. ) );
#189 = EDGE_LOOP ( 'NONE', ( #146 ) ) ;
#190 = AXIS2_PLACEMENT_3D ( 'NONE', #252, #67, #48 ) ;
#191 = CARTESIAN_POINT ( 'NONE',  ( 2.559999999999999609, 0.000000000000000000, 0.000000000000000000 ) ) ;
#192 = DIRECTION ( 'NONE',  ( 0.000000000000000000, 0.000000000000000000, 1.000000000000000000 ) ) ;
#193 = FACE_OUTER_BOUND ( 'NONE', #42, .T. ) ;
#194 = AXIS2_PLACEMENT_3D ( 'NONE', #168, #248, #232 ) ;
#195 = COLOUR_RGB ( '',0.8274509803921568096, 0.8392156862745098200, 0.8274509803921568096 ) ;
#196 = PRODUCT_RELATED_PRODUCT_CATEGORY ( 'part', '', ( #68 ) ) ;
#197 = DIRECTION ( 'NONE',  ( -1.000000000000000000, 0.000000000000000000, -0.000000000000000000 ) ) ;
#198 = CARTESIAN_POINT ( 'NONE',  ( 1.000000000000000222, 0.000000000000000000, 0.000000000000000000 ) ) ;
#199 = FACE_OUTER_BOUND ( 'NONE', #63, .T. ) ;
#200 = EDGE_CURVE ( 'NONE', #14, #14, #207, .T. ) ;
#201 = DIRECTION ( 'NONE',  ( -1.000000000000000000, 0.000000000000000000, -0.000000000000000000 ) ) ;
#202 = FACE_OUTER_BOUND ( 'NONE', #210, .T. ) ;
#203 = CARTESIAN_POINT ( 'NONE',  ( 20.00000000000000000, 0.000000000000000000, 5.999999999999997335 ) ) ;
#204 = UNCERTAINTY_MEASURE_WITH_UNIT (LENGTH_MEASURE( 1.000000000000000082E-05 ), #15, 'distance_accuracy_value', 'NONE');
#205 = ORIENTED_EDGE ( 'NONE', *, *, #124, .T. ) ;
#206 = EDGE_CURVE ( 'NONE', #257, #257, #91, .T. ) ;
#207 = CIRCLE ( 'NONE', #36, 3.000000000000000000 ) ;
#208 = EDGE_LOOP ( 'NONE', ( #59 ) ) ;
#209 = ORIENTED_EDGE ( 'NONE', *, *, #154, .F. ) ;
#210 = EDGE_LOOP ( 'NONE', ( #64 ) ) ;
#211 = ADVANCED_FACE ( 'NONE', ( #202, #99 ), #137, .T. ) ;
#212 = ORIENTED_EDGE ( 'NONE', *, *, #233, .F. ) ;
#213 = DIRECTION ( 'NONE',  ( -0.000000000000000000, 0.000000000000000000, 1.000000000000000000 ) ) ;
#214 = FACE_BOUND ( 'NONE', #105, .T. ) ;
#215 = PLANE ( 'NONE',  #140 ) ;
#216 = FACE_BOUND ( 'NONE', #3, .T. ) ;
#217 = AXIS2_PLACEMENT_3D ( 'NONE', #94, #74, #249 ) ;
#218 = AXIS2_PLACEMENT_3D ( 'NONE', #198, #29, #12 ) ;
#219 = CARTESIAN_POINT ( 'NONE',  ( 1.000000000000000222, 0.000000000000000000, 3.999999999999995559 ) ) ;
#220 = ADVANCED_FACE ( 'NONE', ( #39, #102 ), #160, .F. ) ;
#221 = CARTESIAN_POINT ( 'NONE',  ( 20.00000000000000000, 0.000000000000000000, 3.999999999999998224 ) ) ;
#222 = CIRCLE ( 'NONE', #255, 3.000000000000000000 ) ;
#223 = VERTEX_POINT ( 'NONE', #242 ) ;
#224 = MANIFOLD_SOLID_BREP ( 'Revolve2', #183 ) ;
#225 =( NAMED_UNIT ( * ) PLANE_ANGLE_UNIT ( ) SI_UNIT ( $, .RADIAN. ) );
#226 = ADVANCED_FACE ( 'NONE', ( #199, #37 ), #256, .T. ) ;
#227 = EDGE_LOOP ( 'NONE', ( #24 ) ) ;
#228 = DIRECTION ( 'NONE',  ( 0.000000000000000000, 0.000000000000000000, 1.000000000000000000 ) ) ;
#229 = ORIENTED_EDGE ( 'NONE', *, *, #154, .T. ) ;
#230 = PRODUCT_DEFINITION_FORMATION_WITH_SPECIFIED_SOURCE ( 'ANY', '', #68, .NOT_KNOWN. ) ;
#231 = EDGE_LOOP ( 'NONE', ( #167 ) ) ;
#232 = DIRECTION ( 'NONE',  ( 0.000000000000000000, 0.000000000000000000, -1.000000000000000000 ) ) ;
#233 = EDGE_CURVE ( 'NONE', #53, #53, #155, .T. ) ;
#234 = ORIENTED_EDGE ( 'NONE', *, *, #57, .T. ) ;
#235 = FACE_OUTER_BOUND ( 'NONE', #84, .T. ) ;
#236 = PLANE ( 'NONE',  #247 ) ;
#237 = DIRECTION ( 'NONE',  ( -1.000000000000000000, -0.000000000000000000, -0.000000000000000000 ) ) ;
#238 = DIRECTION ( 'NONE',  ( -1.000000000000000000, -0.000000000000000000, -0.000000000000000000 ) ) ;
#239 = AXIS2_PLACEMENT_3D ( 'NONE', #149, #237, #113 ) ;
#240 = VERTEX_POINT ( 'NONE', #176 ) ;
#241 = DIRECTION ( 'NONE',  ( 0.000000000000000000, 0.000000000000000000, 1.000000000000000000 ) ) ;
#242 = CARTESIAN_POINT ( 'NONE',  ( 22.00000000000000000, 0.000000000000000000, 5.000000000000002665 ) ) ;
#243 = SURFACE_STYLE_FILL_AREA ( #117 ) ;
#244 = CONICAL_SURFACE ( 'NONE', #218, 3.999999999999995559, 0.5235987755983010361 ) ;
#245 = SURFACE_SIDE_STYLE ('',( #164 ) ) ;
#246 = ORIENTED_EDGE ( 'NONE', *, *, #57, .F. ) ;
#247 = AXIS2_PLACEMENT_3D ( 'NONE', #33, #13, #50 ) ;
#248 = DIRECTION ( 'NONE',  ( 1.000000000000000000, 0.000000000000000000, 0.000000000000000000 ) ) ;
#249 = DIRECTION ( 'NONE',  ( 0.000000000000000000, 0.000000000000000000, -1.000000000000000000 ) ) ;
#250 = DIRECTION ( 'NONE',  ( -1.000000000000000000, -0.000000000000000000, -0.000000000000000000 ) ) ;
#251 = AXIS2_PLACEMENT_3D ( 'NONE', #157, #77, #241 ) ;
#252 = CARTESIAN_POINT ( 'NONE',  ( 0.000000000000000000, 0.000000000000000000, 0.000000000000000000 ) ) ;
#253 = DIRECTION ( 'NONE',  ( 0.000000000000000000, 0.000000000000000000, 1.000000000000000000 ) ) ;
#254 = DIRECTION ( 'NONE',  ( -1.000000000000000000, -0.000000000000000000, -0.000000000000000000 ) ) ;
#255 = AXIS2_PLACEMENT_3D ( 'NONE', #134, #89, #28 ) ;
#256 = CONICAL_SURFACE ( 'NONE', #5, 5.000000000000002665, 0.7853981633974452814 ) ;
#257 = VERTEX_POINT ( 'NONE', #76 ) ;
#258 = PRESENTATION_STYLE_ASSIGNMENT (( #58 ) ) ;
#259 = DIRECTION ( 'NONE',  ( 0.000000000000000000, 0.000000000000000000, 1.000000000000000000 ) ) ;
#260 = AXIS2_PLACEMENT_3D ( 'NONE', #171, #49, #65 ) ;
ENDSEC;
END-ISO-10303-21;
