ISO-10303-21;
HEADER;
FILE_DESCRIPTION (( 'STEP AP214' ),
    '1' );
FILE_NAME ('76.04.04.0003.step',
    '2021-04-02T18:04:26',
    ( '' ),
    ( '' ),
    'SwSTEP 2.0',
    'SolidWorks 2021',
    '' );
FILE_SCHEMA (( 'AUTOMOTIVE_DESIGN' ));
ENDSEC;

DATA;
#1 = CARTESIAN_POINT ( 'NONE',  ( 2.999999999999999112, 0.000000000000000000, 2.999999999999997335 ) ) ;
#2 =( NAMED_UNIT ( * ) PLANE_ANGLE_UNIT ( ) SI_UNIT ( $, .RADIAN. ) );
#3 = ORIENTED_EDGE ( 'NONE', *, *, #160, .T. ) ;
#4 = ORIENTED_EDGE ( 'NONE', *, *, #19, .F. ) ;
#5 = ORIENTED_EDGE ( 'NONE', *, *, #14, .F. ) ;
#6 = EDGE_LOOP ( 'NONE', ( #230 ) ) ;
#7 = SURFACE_STYLE_FILL_AREA ( #246 ) ;
#8 = CARTESIAN_POINT ( 'NONE',  ( 0.000000000000000000, 0.000000000000000000, 0.000000000000000000 ) ) ;
#9 = DIRECTION ( 'NONE',  ( -1.000000000000000000, -0.000000000000000000, -0.000000000000000000 ) ) ;
#10 = FACE_OUTER_BOUND ( 'NONE', #247, .T. ) ;
#11 = FILL_AREA_STYLE ('',( #251 ) ) ;
#12 = FACE_OUTER_BOUND ( 'NONE', #228, .T. ) ;
#13 = DIRECTION ( 'NONE',  ( 0.000000000000000000, 0.000000000000000000, 1.000000000000000000 ) ) ;
#14 = EDGE_CURVE ( 'NONE', #177, #177, #37, .T. ) ;
#15 = VERTEX_POINT ( 'NONE', #119 ) ;
#16 = APPLICATION_PROTOCOL_DEFINITION ( 'draft international standard', 'automotive_design', 1998, #150 ) ;
#17 = CARTESIAN_POINT ( 'NONE',  ( 3.106035006120115720E-16, 2.566987298107775040, 0.000000000000000000 ) ) ;
#18 = VERTEX_POINT ( 'NONE', #99 ) ;
#19 = EDGE_CURVE ( 'NONE', #15, #15, #182, .T. ) ;
#20 = EDGE_LOOP ( 'NONE', ( #169 ) ) ;
#21 = MECHANICAL_DESIGN_GEOMETRIC_PRESENTATION_REPRESENTATION (  '', ( #242 ), #133 ) ;
#22 = AXIS2_PLACEMENT_3D ( 'NONE', #243, #23, #224 ) ;
#23 = DIRECTION ( 'NONE',  ( 0.000000000000000000, 0.000000000000000000, 1.000000000000000000 ) ) ;
#24 = DIRECTION ( 'NONE',  ( 0.000000000000000000, 0.000000000000000000, 1.000000000000000000 ) ) ;
#25 = FACE_OUTER_BOUND ( 'NONE', #149, .T. ) ;
#26 = AXIS2_PLACEMENT_3D ( 'NONE', #67, #135, #174 ) ;
#27 = DIRECTION ( 'NONE',  ( 0.000000000000000000, 0.000000000000000000, 1.000000000000000000 ) ) ;
#28 = DIRECTION ( 'NONE',  ( 0.000000000000000000, 0.000000000000000000, 1.000000000000000000 ) ) ;
#29 = PLANE ( 'NONE',  #34 ) ;
#30 =( LENGTH_UNIT ( ) NAMED_UNIT ( * ) SI_UNIT ( .MILLI., .METRE. ) );
#31 = ADVANCED_FACE ( 'NONE', ( #106, #38 ), #186, .T. ) ;
#32 = PRESENTATION_STYLE_ASSIGNMENT (( #138 ) ) ;
#33 = FACE_OUTER_BOUND ( 'NONE', #61, .T. ) ;
#34 = AXIS2_PLACEMENT_3D ( 'NONE', #157, #113, #69 ) ;
#35 = PRODUCT_DEFINITION_CONTEXT ( 'detailed design', #43, 'design' ) ;
#36 = CARTESIAN_POINT ( 'NONE',  ( 2.259999999999998899, 0.000000000000000000, 2.500000000000000000 ) ) ;
#37 = CIRCLE ( 'NONE', #250, 2.999999999999995559 ) ;
#38 = FACE_OUTER_BOUND ( 'NONE', #208, .T. ) ;
#39 = EDGE_LOOP ( 'NONE', ( #168 ) ) ;
#40 = AXIS2_PLACEMENT_3D ( 'NONE', #8, #87, #171 ) ;
#41 = ADVANCED_FACE ( 'NONE', ( #25, #107 ), #188, .T. ) ;
#42 = CARTESIAN_POINT ( 'NONE',  ( 0.7500000000000004441, 0.000000000000000000, 0.000000000000000000 ) ) ;
#43 = APPLICATION_CONTEXT ( 'automotive_design' ) ;
#44 = EDGE_LOOP ( 'NONE', ( #209 ) ) ;
#45 = DIRECTION ( 'NONE',  ( 0.000000000000000000, 0.000000000000000000, 1.000000000000000000 ) ) ;
#46 = ADVANCED_FACE ( 'NONE', ( #66, #111 ), #216, .T. ) ;
#47 = MANIFOLD_SOLID_BREP ( 'Revolve2', #140 ) ;
#48 = DIRECTION ( 'NONE',  ( 1.000000000000000000, 0.000000000000000000, 0.000000000000000000 ) ) ;
#49 = DIRECTION ( 'NONE',  ( -1.000000000000000000, -0.000000000000000000, -0.000000000000000000 ) ) ;
#50 = CONICAL_SURFACE ( 'NONE', #200, 2.999999999999995559, 0.5235987755983002589 ) ;
#51 = CYLINDRICAL_SURFACE ( 'NONE', #86, 2.999999999999996447 ) ;
#52 = VERTEX_POINT ( 'NONE', #36 ) ;
#53 = CARTESIAN_POINT ( 'NONE',  ( 15.50000000000000000, 0.000000000000000000, 2.999999999999997335 ) ) ;
#54 = ADVANCED_FACE ( 'NONE', ( #189, #232 ), #70, .T. ) ;
#55 = DIRECTION ( 'NONE',  ( 0.000000000000000000, 0.000000000000000000, 1.000000000000000000 ) ) ;
#56 = CARTESIAN_POINT ( 'NONE',  ( 15.50000000000000000, 4.499999999999996447, 0.000000000000000000 ) ) ;
#57 = PLANE ( 'NONE',  #239 ) ;
#58 =( NAMED_UNIT ( * ) SI_UNIT ( $, .STERADIAN. ) SOLID_ANGLE_UNIT ( ) );
#59 = ORIENTED_EDGE ( 'NONE', *, *, #116, .T. ) ;
#60 = ORIENTED_EDGE ( 'NONE', *, *, #142, .F. ) ;
#61 = EDGE_LOOP ( 'NONE', ( #248 ) ) ;
#62 = PRODUCT_DEFINITION ( 'UNKNOWN', '', #63, #35 ) ;
#63 = PRODUCT_DEFINITION_FORMATION_WITH_SPECIFIED_SOURCE ( 'ANY', '', #156, .NOT_KNOWN. ) ;
#64 = SURFACE_SIDE_STYLE ('',( #7 ) ) ;
#65 = DIRECTION ( 'NONE',  ( -1.000000000000000000, -0.000000000000000000, -0.000000000000000000 ) ) ;
#66 = FACE_OUTER_BOUND ( 'NONE', #184, .T. ) ;
#67 = CARTESIAN_POINT ( 'NONE',  ( 17.00000000000000000, 0.000000000000000000, 0.000000000000000000 ) ) ;
#68 = MECHANICAL_DESIGN_GEOMETRIC_PRESENTATION_REPRESENTATION (  '', ( #194 ), #110 ) ;
#69 = DIRECTION ( 'NONE',  ( -0.000000000000000000, 0.000000000000000000, 1.000000000000000000 ) ) ;
#70 = CYLINDRICAL_SURFACE ( 'NONE', #256, 2.999999999999997335 ) ;
#71 = CIRCLE ( 'NONE', #221, 4.499999999999996447 ) ;
#72 =( NAMED_UNIT ( * ) SI_UNIT ( $, .STERADIAN. ) SOLID_ANGLE_UNIT ( ) );
#73 = FACE_BOUND ( 'NONE', #105, .T. ) ;
#74 = DIRECTION ( 'NONE',  ( 0.000000000000000000, 0.000000000000000000, 1.000000000000000000 ) ) ;
#75 = UNCERTAINTY_MEASURE_WITH_UNIT (LENGTH_MEASURE( 1.000000000000000082E-05 ), #130, 'distance_accuracy_value', 'NONE');
#76 = CARTESIAN_POINT ( 'NONE',  ( 2.999999999999999112, 2.500000000000000000, 0.000000000000000000 ) ) ;
#77 = VERTEX_POINT ( 'NONE', #166 ) ;
#78 = ADVANCED_FACE ( 'NONE', ( #191, #158 ), #50, .T. ) ;
#79 =( NAMED_UNIT ( * ) SI_UNIT ( $, .STERADIAN. ) SOLID_ANGLE_UNIT ( ) );
#80 = DIRECTION ( 'NONE',  ( -1.000000000000000000, -0.000000000000000000, -0.000000000000000000 ) ) ;
#81 = EDGE_LOOP ( 'NONE', ( #5 ) ) ;
#82 = FILL_AREA_STYLE_COLOUR ( '', #252 ) ;
#83 = EDGE_LOOP ( 'NONE', ( #204 ) ) ;
#84 = SHAPE_DEFINITION_REPRESENTATION ( #114, #187 ) ;
#85 = CARTESIAN_POINT ( 'NONE',  ( 0.000000000000000000, 0.000000000000000000, 0.000000000000000000 ) ) ;
#86 = AXIS2_PLACEMENT_3D ( 'NONE', #161, #253, #137 ) ;
#87 = DIRECTION ( 'NONE',  ( -1.000000000000000000, -0.000000000000000000, -0.000000000000000000 ) ) ;
#88 = ADVANCED_FACE ( 'NONE', ( #234, #93 ), #51, .T. ) ;
#89 = DIRECTION ( 'NONE',  ( -1.000000000000000000, -0.000000000000000000, -0.000000000000000000 ) ) ;
#90 = CARTESIAN_POINT ( 'NONE',  ( 2.999999999999999112, 0.000000000000000000, 0.000000000000000000 ) ) ;
#91 = CIRCLE ( 'NONE', #210, 2.999999999999997335 ) ;
#92 = DIRECTION ( 'NONE',  ( 0.000000000000000000, 0.000000000000000000, 1.000000000000000000 ) ) ;
#93 = FACE_OUTER_BOUND ( 'NONE', #39, .T. ) ;
#94 = COLOUR_RGB ( '',0.8274509803921568096, 0.8392156862745098200, 0.8274509803921568096 ) ;
#95 =( GEOMETRIC_REPRESENTATION_CONTEXT ( 3 ) GLOBAL_UNCERTAINTY_ASSIGNED_CONTEXT ( ( #203 ) ) GLOBAL_UNIT_ASSIGNED_CONTEXT ( ( #181, #222, #79 ) ) REPRESENTATION_CONTEXT ( 'NONE', 'WORKASPACE' ) );
#96 = CIRCLE ( 'NONE', #134, 2.999999999999997335 ) ;
#97 = DIRECTION ( 'NONE',  ( 1.000000000000000000, 0.000000000000000000, 0.000000000000000000 ) ) ;
#98 = DIRECTION ( 'NONE',  ( 1.000000000000000000, 0.000000000000000000, 0.000000000000000000 ) ) ;
#99 = CARTESIAN_POINT ( 'NONE',  ( 6.212070012240231440E-16, 0.000000000000000000, 2.566987298107775040 ) ) ;
#100 = AXIS2_PLACEMENT_3D ( 'NONE', #17, #98, #121 ) ;
#101 = PLANE ( 'NONE',  #259 ) ;
#102 = EDGE_LOOP ( 'NONE', ( #60 ) ) ;
#103 = PRESENTATION_LAYER_ASSIGNMENT (  '', '', ( #242 ) ) ;
#104 = EDGE_CURVE ( 'NONE', #18, #18, #125, .T. ) ;
#105 = EDGE_LOOP ( 'NONE', ( #131 ) ) ;
#106 = FACE_OUTER_BOUND ( 'NONE', #153, .T. ) ;
#107 = FACE_OUTER_BOUND ( 'NONE', #206, .T. ) ;
#108 = EDGE_CURVE ( 'NONE', #236, #236, #71, .T. ) ;
#109 = CIRCLE ( 'NONE', #146, 2.500000000000000000 ) ;
#110 =( GEOMETRIC_REPRESENTATION_CONTEXT ( 3 ) GLOBAL_UNCERTAINTY_ASSIGNED_CONTEXT ( ( #75 ) ) GLOBAL_UNIT_ASSIGNED_CONTEXT ( ( #130, #2, #58 ) ) REPRESENTATION_CONTEXT ( 'NONE', 'WORKASPACE' ) );
#111 = FACE_BOUND ( 'NONE', #227, .T. ) ;
#112 = SURFACE_SIDE_STYLE ('',( #117 ) ) ;
#113 = DIRECTION ( 'NONE',  ( -1.000000000000000000, 0.000000000000000000, -0.000000000000000000 ) ) ;
#114 = PRODUCT_DEFINITION_SHAPE ( 'NONE', 'NONE',  #62 ) ;
#115 = CIRCLE ( 'NONE', #183, 2.500000000000000000 ) ;
#116 = EDGE_CURVE ( 'NONE', #260, #260, #109, .T. ) ;
#117 = SURFACE_STYLE_FILL_AREA ( #11 ) ;
#118 = CARTESIAN_POINT ( 'NONE',  ( 0.7500000000000004441, 0.000000000000000000, 2.999999999999995559 ) ) ;
#119 = CARTESIAN_POINT ( 'NONE',  ( 17.00000000000000000, 0.000000000000000000, 3.999999999999999112 ) ) ;
#120 = UNCERTAINTY_MEASURE_WITH_UNIT (LENGTH_MEASURE( 1.000000000000000082E-05 ), #30, 'distance_accuracy_value', 'NONE');
#121 = DIRECTION ( 'NONE',  ( 0.000000000000000000, 0.000000000000000000, -1.000000000000000000 ) ) ;
#122 = ADVANCED_FACE ( 'NONE', ( #10 ), #249, .F. ) ;
#123 = CARTESIAN_POINT ( 'NONE',  ( 15.50000000000000000, 0.000000000000000000, 0.000000000000000000 ) ) ;
#124 = CARTESIAN_POINT ( 'NONE',  ( 2.259999999999998899, 0.000000000000000000, 2.999999999999997335 ) ) ;
#125 = CIRCLE ( 'NONE', #159, 2.566987298107775040 ) ;
#126 = SURFACE_STYLE_USAGE ( .BOTH. , #64 ) ;
#127 = ORIENTED_EDGE ( 'NONE', *, *, #226, .F. ) ;
#128 = EDGE_LOOP ( 'NONE', ( #151 ) ) ;
#129 = DIRECTION ( 'NONE',  ( -1.000000000000000000, -0.000000000000000000, -0.000000000000000000 ) ) ;
#130 =( LENGTH_UNIT ( ) NAMED_UNIT ( * ) SI_UNIT ( .MILLI., .METRE. ) );
#131 = ORIENTED_EDGE ( 'NONE', *, *, #237, .F. ) ;
#132 = DIRECTION ( 'NONE',  ( 0.000000000000000000, 0.000000000000000000, 1.000000000000000000 ) ) ;
#133 =( GEOMETRIC_REPRESENTATION_CONTEXT ( 3 ) GLOBAL_UNCERTAINTY_ASSIGNED_CONTEXT ( ( #120 ) ) GLOBAL_UNIT_ASSIGNED_CONTEXT ( ( #30, #175, #72 ) ) REPRESENTATION_CONTEXT ( 'NONE', 'WORKASPACE' ) );
#134 = AXIS2_PLACEMENT_3D ( 'NONE', #123, #143, #219 ) ;
#135 = DIRECTION ( 'NONE',  ( -1.000000000000000000, 0.000000000000000000, -0.000000000000000000 ) ) ;
#136 = CARTESIAN_POINT ( 'NONE',  ( 0.000000000000000000, 0.000000000000000000, 0.000000000000000000 ) ) ;
#137 = DIRECTION ( 'NONE',  ( 0.000000000000000000, 0.000000000000000000, 1.000000000000000000 ) ) ;
#138 = SURFACE_STYLE_USAGE ( .BOTH. , #112 ) ;
#139 = ADVANCED_FACE ( 'NONE', ( #12, #154 ), #29, .F. ) ;
#140 = CLOSED_SHELL ( 'NONE', ( #122, #46, #41, #211, #54, #195, #31, #139, #88, #78, #155 ) ) ;
#141 = DIRECTION ( 'NONE',  ( 0.000000000000000000, 0.000000000000000000, -1.000000000000000000 ) ) ;
#142 = EDGE_CURVE ( 'NONE', #220, #220, #91, .T. ) ;
#143 = DIRECTION ( 'NONE',  ( -1.000000000000000000, -0.000000000000000000, -0.000000000000000000 ) ) ;
#144 = DIRECTION ( 'NONE',  ( 1.000000000000000000, 0.000000000000000000, 0.000000000000000000 ) ) ;
#145 = DIRECTION ( 'NONE',  ( -1.000000000000000000, -0.000000000000000000, -0.000000000000000000 ) ) ;
#146 = AXIS2_PLACEMENT_3D ( 'NONE', #255, #172, #92 ) ;
#147 = ORIENTED_EDGE ( 'NONE', *, *, #190, .F. ) ;
#148 = PRESENTATION_STYLE_ASSIGNMENT (( #126 ) ) ;
#149 = EDGE_LOOP ( 'NONE', ( #223 ) ) ;
#150 = APPLICATION_CONTEXT ( 'automotive_design' ) ;
#151 = ORIENTED_EDGE ( 'NONE', *, *, #104, .T. ) ;
#152 = EDGE_LOOP ( 'NONE', ( #245 ) ) ;
#153 = EDGE_LOOP ( 'NONE', ( #147 ) ) ;
#154 = FACE_BOUND ( 'NONE', #170, .T. ) ;
#155 = ADVANCED_FACE ( 'NONE', ( #212 ), #173, .F. ) ;
#156 = PRODUCT ( '76.04.04.0003', '76.04.04.0003', '', ( #176 ) ) ;
#157 = CARTESIAN_POINT ( 'NONE',  ( 2.259999999999998899, 2.999999999999997335, 0.000000000000000000 ) ) ;
#158 = FACE_OUTER_BOUND ( 'NONE', #44, .T. ) ;
#159 = AXIS2_PLACEMENT_3D ( 'NONE', #196, #9, #192 ) ;
#160 = EDGE_CURVE ( 'NONE', #77, #77, #205, .T. ) ;
#161 = CARTESIAN_POINT ( 'NONE',  ( 0.000000000000000000, 0.000000000000000000, 0.000000000000000000 ) ) ;
#162 = CARTESIAN_POINT ( 'NONE',  ( 2.259999999999998899, 0.000000000000000000, 0.000000000000000000 ) ) ;
#163 = AXIS2_PLACEMENT_3D ( 'NONE', #207, #65, #24 ) ;
#164 = CIRCLE ( 'NONE', #201, 2.999999999999997335 ) ;
#165 = CARTESIAN_POINT ( 'NONE',  ( 2.259999999999998899, 0.000000000000000000, 0.000000000000000000 ) ) ;
#166 = CARTESIAN_POINT ( 'NONE',  ( 16.50000000000000000, 0.000000000000000000, 4.499999999999996447 ) ) ;
#167 = CARTESIAN_POINT ( 'NONE',  ( 17.00000000000000000, 0.000000000000000000, 0.000000000000000000 ) ) ;
#168 = ORIENTED_EDGE ( 'NONE', *, *, #226, .T. ) ;
#169 = ORIENTED_EDGE ( 'NONE', *, *, #142, .T. ) ;
#170 = EDGE_LOOP ( 'NONE', ( #185 ) ) ;
#171 = DIRECTION ( 'NONE',  ( 0.000000000000000000, 0.000000000000000000, 1.000000000000000000 ) ) ;
#172 = DIRECTION ( 'NONE',  ( -1.000000000000000000, -0.000000000000000000, -0.000000000000000000 ) ) ;
#173 = PLANE ( 'NONE',  #100 ) ;
#174 = DIRECTION ( 'NONE',  ( -0.000000000000000000, 0.000000000000000000, 1.000000000000000000 ) ) ;
#175 =( NAMED_UNIT ( * ) PLANE_ANGLE_UNIT ( ) SI_UNIT ( $, .RADIAN. ) );
#176 = PRODUCT_CONTEXT ( 'NONE', #150, 'mechanical' ) ;
#177 = VERTEX_POINT ( 'NONE', #118 ) ;
#178 = CARTESIAN_POINT ( 'NONE',  ( 16.50000000000000000, 0.000000000000000000, 0.000000000000000000 ) ) ;
#179 = AXIS2_PLACEMENT_3D ( 'NONE', #178, #145, #199 ) ;
#180 = CARTESIAN_POINT ( 'NONE',  ( 15.50000000000000000, 0.000000000000000000, 4.499999999999996447 ) ) ;
#181 =( LENGTH_UNIT ( ) NAMED_UNIT ( * ) SI_UNIT ( .MILLI., .METRE. ) );
#182 = CIRCLE ( 'NONE', #163, 3.999999999999999112 ) ;
#183 = AXIS2_PLACEMENT_3D ( 'NONE', #162, #258, #74 ) ;
#184 = EDGE_LOOP ( 'NONE', ( #244 ) ) ;
#185 = ORIENTED_EDGE ( 'NONE', *, *, #190, .T. ) ;
#186 = CYLINDRICAL_SURFACE ( 'NONE', #193, 2.500000000000000000 ) ;
#187 = ADVANCED_BREP_SHAPE_REPRESENTATION ( '76.04.04.0003', ( #47, #22 ), #95 ) ;
#188 = CYLINDRICAL_SURFACE ( 'NONE', #40, 4.499999999999996447 ) ;
#189 = FACE_OUTER_BOUND ( 'NONE', #102, .T. ) ;
#190 = EDGE_CURVE ( 'NONE', #52, #52, #115, .T. ) ;
#191 = FACE_BOUND ( 'NONE', #6, .T. ) ;
#192 = DIRECTION ( 'NONE',  ( 0.000000000000000000, 0.000000000000000000, 1.000000000000000000 ) ) ;
#193 = AXIS2_PLACEMENT_3D ( 'NONE', #85, #80, #27 ) ;
#194 = STYLED_ITEM ( 'NONE', ( #148 ), #187 ) ;
#195 = ADVANCED_FACE ( 'NONE', ( #198, #241 ), #57, .F. ) ;
#196 = CARTESIAN_POINT ( 'NONE',  ( 6.212070012240231440E-16, 0.000000000000000000, 0.000000000000000000 ) ) ;
#197 = VERTEX_POINT ( 'NONE', #124 ) ;
#198 = FACE_BOUND ( 'NONE', #152, .T. ) ;
#199 = DIRECTION ( 'NONE',  ( 0.000000000000000000, 0.000000000000000000, 1.000000000000000000 ) ) ;
#200 = AXIS2_PLACEMENT_3D ( 'NONE', #213, #48, #233 ) ;
#201 = AXIS2_PLACEMENT_3D ( 'NONE', #165, #240, #55 ) ;
#202 = VERTEX_POINT ( 'NONE', #53 ) ;
#203 = UNCERTAINTY_MEASURE_WITH_UNIT (LENGTH_MEASURE( 1.000000000000000082E-05 ), #181, 'distance_accuracy_value', 'NONE');
#204 = ORIENTED_EDGE ( 'NONE', *, *, #237, .T. ) ;
#205 = CIRCLE ( 'NONE', #179, 4.499999999999996447 ) ;
#206 = EDGE_LOOP ( 'NONE', ( #3 ) ) ;
#207 = CARTESIAN_POINT ( 'NONE',  ( 17.00000000000000000, 0.000000000000000000, 0.000000000000000000 ) ) ;
#208 = EDGE_LOOP ( 'NONE', ( #59 ) ) ;
#209 = ORIENTED_EDGE ( 'NONE', *, *, #14, .T. ) ;
#210 = AXIS2_PLACEMENT_3D ( 'NONE', #90, #49, #231 ) ;
#211 = ADVANCED_FACE ( 'NONE', ( #73, #33 ), #101, .F. ) ;
#212 = FACE_OUTER_BOUND ( 'NONE', #128, .T. ) ;
#213 = CARTESIAN_POINT ( 'NONE',  ( 0.7500000000000004441, 0.000000000000000000, 0.000000000000000000 ) ) ;
#214 = CARTESIAN_POINT ( 'NONE',  ( 15.50000000000000000, 0.000000000000000000, 0.000000000000000000 ) ) ;
#215 = DIRECTION ( 'NONE',  ( -1.000000000000000000, -0.000000000000000000, -0.000000000000000000 ) ) ;
#216 = CONICAL_SURFACE ( 'NONE', #235, 3.999999999999999112, 0.7853981633974447263 ) ;
#217 = PRESENTATION_LAYER_ASSIGNMENT (  '', '', ( #194 ) ) ;
#218 = CARTESIAN_POINT ( 'NONE',  ( 2.999999999999999112, 0.000000000000000000, 2.500000000000000000 ) ) ;
#219 = DIRECTION ( 'NONE',  ( 0.000000000000000000, 0.000000000000000000, 1.000000000000000000 ) ) ;
#220 = VERTEX_POINT ( 'NONE', #1 ) ;
#221 = AXIS2_PLACEMENT_3D ( 'NONE', #214, #89, #13 ) ;
#222 =( NAMED_UNIT ( * ) PLANE_ANGLE_UNIT ( ) SI_UNIT ( $, .RADIAN. ) );
#223 = ORIENTED_EDGE ( 'NONE', *, *, #108, .F. ) ;
#224 = DIRECTION ( 'NONE',  ( 1.000000000000000000, 0.000000000000000000, 0.000000000000000000 ) ) ;
#225 = ORIENTED_EDGE ( 'NONE', *, *, #19, .T. ) ;
#226 = EDGE_CURVE ( 'NONE', #197, #197, #164, .T. ) ;
#227 = EDGE_LOOP ( 'NONE', ( #225 ) ) ;
#228 = EDGE_LOOP ( 'NONE', ( #127 ) ) ;
#229 = PRODUCT_RELATED_PRODUCT_CATEGORY ( 'part', '', ( #156 ) ) ;
#230 = ORIENTED_EDGE ( 'NONE', *, *, #104, .F. ) ;
#231 = DIRECTION ( 'NONE',  ( 0.000000000000000000, 0.000000000000000000, 1.000000000000000000 ) ) ;
#232 = FACE_OUTER_BOUND ( 'NONE', #83, .T. ) ;
#233 = DIRECTION ( 'NONE',  ( 0.000000000000000000, 0.000000000000000000, -1.000000000000000000 ) ) ;
#234 = FACE_OUTER_BOUND ( 'NONE', #81, .T. ) ;
#235 = AXIS2_PLACEMENT_3D ( 'NONE', #167, #254, #28 ) ;
#236 = VERTEX_POINT ( 'NONE', #180 ) ;
#237 = EDGE_CURVE ( 'NONE', #202, #202, #96, .T. ) ;
#238 = DIRECTION ( 'NONE',  ( 0.000000000000000000, 0.000000000000000000, -1.000000000000000000 ) ) ;
#239 = AXIS2_PLACEMENT_3D ( 'NONE', #76, #97, #238 ) ;
#240 = DIRECTION ( 'NONE',  ( -1.000000000000000000, -0.000000000000000000, -0.000000000000000000 ) ) ;
#241 = FACE_OUTER_BOUND ( 'NONE', #20, .T. ) ;
#242 = STYLED_ITEM ( 'NONE', ( #32 ), #47 ) ;
#243 = CARTESIAN_POINT ( 'NONE',  ( 0.000000000000000000, 0.000000000000000000, 0.000000000000000000 ) ) ;
#244 = ORIENTED_EDGE ( 'NONE', *, *, #160, .F. ) ;
#245 = ORIENTED_EDGE ( 'NONE', *, *, #116, .F. ) ;
#246 = FILL_AREA_STYLE ('',( #82 ) ) ;
#247 = EDGE_LOOP ( 'NONE', ( #4 ) ) ;
#248 = ORIENTED_EDGE ( 'NONE', *, *, #108, .T. ) ;
#249 = PLANE ( 'NONE',  #26 ) ;
#250 = AXIS2_PLACEMENT_3D ( 'NONE', #42, #129, #132 ) ;
#251 = FILL_AREA_STYLE_COLOUR ( '', #94 ) ;
#252 = COLOUR_RGB ( '',0.8274509803921568096, 0.8392156862745098200, 0.8274509803921568096 ) ;
#253 = DIRECTION ( 'NONE',  ( -1.000000000000000000, -0.000000000000000000, -0.000000000000000000 ) ) ;
#254 = DIRECTION ( 'NONE',  ( -1.000000000000000000, -0.000000000000000000, -0.000000000000000000 ) ) ;
#255 = CARTESIAN_POINT ( 'NONE',  ( 2.999999999999999112, 0.000000000000000000, 0.000000000000000000 ) ) ;
#256 = AXIS2_PLACEMENT_3D ( 'NONE', #136, #215, #45 ) ;
#257 = APPLICATION_PROTOCOL_DEFINITION ( 'draft international standard', 'automotive_design', 1998, #43 ) ;
#258 = DIRECTION ( 'NONE',  ( -1.000000000000000000, -0.000000000000000000, -0.000000000000000000 ) ) ;
#259 = AXIS2_PLACEMENT_3D ( 'NONE', #56, #144, #141 ) ;
#260 = VERTEX_POINT ( 'NONE', #218 ) ;
ENDSEC;
END-ISO-10303-21;
