ISO-10303-21;
HEADER;
FILE_DESCRIPTION (( 'STEP AP214' ),
    '1' );
FILE_NAME ('76.04.04.0001.step',
    '2021-04-02T18:04:22',
    ( '' ),
    ( '' ),
    'SwSTEP 2.0',
    'SolidWorks 2021',
    '' );
FILE_SCHEMA (( 'AUTOMOTIVE_DESIGN' ));
ENDSEC;

DATA;
#1 =( NAMED_UNIT ( * ) SI_UNIT ( $, .STERADIAN. ) SOLID_ANGLE_UNIT ( ) );
#2 = CARTESIAN_POINT ( 'NONE',  ( 11.50000000000000000, 0.000000000000000000, 0.000000000000000000 ) ) ;
#3 = AXIS2_PLACEMENT_3D ( 'NONE', #97, #122, #188 ) ;
#4 = DIRECTION ( 'NONE',  ( 0.000000000000000000, 0.000000000000000000, 1.000000000000000000 ) ) ;
#5 = DIRECTION ( 'NONE',  ( -1.000000000000000000, -0.000000000000000000, -0.000000000000000000 ) ) ;
#6 = VERTEX_POINT ( 'NONE', #249 ) ;
#7 = ORIENTED_EDGE ( 'NONE', *, *, #96, .T. ) ;
#8 = APPLICATION_PROTOCOL_DEFINITION ( 'draft international standard', 'automotive_design', 1998, #107 ) ;
#9 = SHAPE_DEFINITION_REPRESENTATION ( #68, #138 ) ;
#10 = EDGE_LOOP ( 'NONE', ( #65 ) ) ;
#11 = CYLINDRICAL_SURFACE ( 'NONE', #193, 1.599999999999999867 ) ;
#12 = DIRECTION ( 'NONE',  ( 0.000000000000000000, 0.000000000000000000, 1.000000000000000000 ) ) ;
#13 = DIRECTION ( 'NONE',  ( -1.000000000000000000, -0.000000000000000000, -0.000000000000000000 ) ) ;
#14 = CARTESIAN_POINT ( 'NONE',  ( 1.360000000000000542, 0.000000000000000000, 0.000000000000000000 ) ) ;
#15 = EDGE_LOOP ( 'NONE', ( #31 ) ) ;
#16 = ADVANCED_FACE ( 'NONE', ( #71, #52 ), #201, .F. ) ;
#17 = MECHANICAL_DESIGN_GEOMETRIC_PRESENTATION_REPRESENTATION (  '', ( #212 ), #171 ) ;
#18 = CARTESIAN_POINT ( 'NONE',  ( 1.271326767554101838E-16, 0.000000000000000000, 1.711324865405184692 ) ) ;
#19 = SURFACE_STYLE_FILL_AREA ( #242 ) ;
#20 = CARTESIAN_POINT ( 'NONE',  ( 10.50000000000000000, 0.000000000000000000, 0.000000000000000000 ) ) ;
#21 = EDGE_CURVE ( 'NONE', #120, #120, #208, .T. ) ;
#22 = ORIENTED_EDGE ( 'NONE', *, *, #173, .T. ) ;
#23 = FILL_AREA_STYLE ('',( #151 ) ) ;
#24 = STYLED_ITEM ( 'NONE', ( #243 ), #129 ) ;
#25 = DIRECTION ( 'NONE',  ( 0.000000000000000000, 0.000000000000000000, 1.000000000000000000 ) ) ;
#26 = EDGE_LOOP ( 'NONE', ( #42 ) ) ;
#27 = VERTEX_POINT ( 'NONE', #113 ) ;
#28 = ORIENTED_EDGE ( 'NONE', *, *, #46, .T. ) ;
#29 = AXIS2_PLACEMENT_3D ( 'NONE', #56, #39, #35 ) ;
#30 = DIRECTION ( 'NONE',  ( 0.000000000000000000, 0.000000000000000000, -1.000000000000000000 ) ) ;
#31 = ORIENTED_EDGE ( 'NONE', *, *, #46, .F. ) ;
#32 = CARTESIAN_POINT ( 'NONE',  ( 10.50000000000000000, 2.999999999999999556, 0.000000000000000000 ) ) ;
#33 = DIRECTION ( 'NONE',  ( 0.000000000000000000, 0.000000000000000000, 1.000000000000000000 ) ) ;
#34 = DIRECTION ( 'NONE',  ( -1.000000000000000000, -0.000000000000000000, -0.000000000000000000 ) ) ;
#35 = DIRECTION ( 'NONE',  ( 0.000000000000000000, 0.000000000000000000, 1.000000000000000000 ) ) ;
#36 = COLOUR_RGB ( '',0.8274509803921568096, 0.8392156862745098200, 0.8274509803921568096 ) ;
#37 = DIRECTION ( 'NONE',  ( -1.000000000000000000, 0.000000000000000000, -0.000000000000000000 ) ) ;
#38 = FACE_OUTER_BOUND ( 'NONE', #47, .T. ) ;
#39 = DIRECTION ( 'NONE',  ( -1.000000000000000000, -0.000000000000000000, -0.000000000000000000 ) ) ;
#40 = DIRECTION ( 'NONE',  ( -1.000000000000000000, -0.000000000000000000, -0.000000000000000000 ) ) ;
#41 = AXIS2_PLACEMENT_3D ( 'NONE', #105, #25, #108 ) ;
#42 = ORIENTED_EDGE ( 'NONE', *, *, #21, .F. ) ;
#43 = CARTESIAN_POINT ( 'NONE',  ( 0.5000000000000000000, 0.000000000000000000, 1.999999999999998668 ) ) ;
#44 = VERTEX_POINT ( 'NONE', #214 ) ;
#45 = CIRCLE ( 'NONE', #78, 1.599999999999999867 ) ;
#46 = EDGE_CURVE ( 'NONE', #229, #229, #132, .T. ) ;
#47 = EDGE_LOOP ( 'NONE', ( #135 ) ) ;
#48 = ORIENTED_EDGE ( 'NONE', *, *, #173, .F. ) ;
#49 = AXIS2_PLACEMENT_3D ( 'NONE', #140, #87, #178 ) ;
#50 = FACE_OUTER_BOUND ( 'NONE', #177, .T. ) ;
#51 = ADVANCED_FACE ( 'NONE', ( #185, #50 ), #11, .T. ) ;
#52 = FACE_OUTER_BOUND ( 'NONE', #257, .T. ) ;
#53 = FACE_BOUND ( 'NONE', #26, .T. ) ;
#54 = CYLINDRICAL_SURFACE ( 'NONE', #49, 1.999999999999999556 ) ;
#55 = EDGE_CURVE ( 'NONE', #130, #130, #256, .T. ) ;
#56 = CARTESIAN_POINT ( 'NONE',  ( 0.000000000000000000, 0.000000000000000000, 0.000000000000000000 ) ) ;
#57 = AXIS2_PLACEMENT_3D ( 'NONE', #32, #202, #30 ) ;
#58 = SURFACE_SIDE_STYLE ('',( #19 ) ) ;
#59 = FACE_OUTER_BOUND ( 'NONE', #220, .T. ) ;
#60 = PRESENTATION_LAYER_ASSIGNMENT (  '', '', ( #24 ) ) ;
#61 = PRESENTATION_STYLE_ASSIGNMENT (( #192 ) ) ;
#62 = VERTEX_POINT ( 'NONE', #110 ) ;
#63 = EDGE_LOOP ( 'NONE', ( #116 ) ) ;
#64 = APPLICATION_PROTOCOL_DEFINITION ( 'draft international standard', 'automotive_design', 1998, #102 ) ;
#65 = ORIENTED_EDGE ( 'NONE', *, *, #142, .T. ) ;
#66 = ORIENTED_EDGE ( 'NONE', *, *, #189, .F. ) ;
#67 = EDGE_LOOP ( 'NONE', ( #28 ) ) ;
#68 = PRODUCT_DEFINITION_SHAPE ( 'NONE', 'NONE',  #204 ) ;
#69 = EDGE_LOOP ( 'NONE', ( #84 ) ) ;
#70 = EDGE_LOOP ( 'NONE', ( #131 ) ) ;
#71 = FACE_BOUND ( 'NONE', #232, .T. ) ;
#72 = EDGE_LOOP ( 'NONE', ( #199 ) ) ;
#73 = DIRECTION ( 'NONE',  ( -1.000000000000000000, 0.000000000000000000, -0.000000000000000000 ) ) ;
#74 = ADVANCED_FACE ( 'NONE', ( #154 ), #133, .F. ) ;
#75 = CARTESIAN_POINT ( 'NONE',  ( 11.50000000000000000, 0.000000000000000000, 0.000000000000000000 ) ) ;
#76 = CYLINDRICAL_SURFACE ( 'NONE', #3, 1.999999999999998668 ) ;
#77 = DIRECTION ( 'NONE',  ( 0.000000000000000000, 0.000000000000000000, 1.000000000000000000 ) ) ;
#78 = AXIS2_PLACEMENT_3D ( 'NONE', #190, #5, #98 ) ;
#79 = DIRECTION ( 'NONE',  ( 0.000000000000000000, 0.000000000000000000, 1.000000000000000000 ) ) ;
#80 = DIRECTION ( 'NONE',  ( -1.000000000000000000, -0.000000000000000000, -0.000000000000000000 ) ) ;
#81 = AXIS2_PLACEMENT_3D ( 'NONE', #245, #103, #101 ) ;
#82 = CARTESIAN_POINT ( 'NONE',  ( 2.000000000000000444, 0.000000000000000000, 1.599999999999999867 ) ) ;
#83 = SURFACE_STYLE_FILL_AREA ( #23 ) ;
#84 = ORIENTED_EDGE ( 'NONE', *, *, #158, .T. ) ;
#85 = ORIENTED_EDGE ( 'NONE', *, *, #86, .T. ) ;
#86 = EDGE_CURVE ( 'NONE', #147, #147, #200, .T. ) ;
#87 = DIRECTION ( 'NONE',  ( -1.000000000000000000, -0.000000000000000000, -0.000000000000000000 ) ) ;
#88 = CARTESIAN_POINT ( 'NONE',  ( 1.271326767554101838E-16, 0.000000000000000000, 0.000000000000000000 ) ) ;
#89 = PRESENTATION_LAYER_ASSIGNMENT (  '', '', ( #212 ) ) ;
#90 = DIRECTION ( 'NONE',  ( 0.000000000000000000, 0.000000000000000000, 1.000000000000000000 ) ) ;
#91 = FACE_BOUND ( 'NONE', #157, .T. ) ;
#92 = ADVANCED_FACE ( 'NONE', ( #53, #119 ), #235, .T. ) ;
#93 = ORIENTED_EDGE ( 'NONE', *, *, #96, .F. ) ;
#94 = AXIS2_PLACEMENT_3D ( 'NONE', #222, #13, #33 ) ;
#95 = DIRECTION ( 'NONE',  ( -1.000000000000000000, -0.000000000000000000, -0.000000000000000000 ) ) ;
#96 = EDGE_CURVE ( 'NONE', #27, #27, #143, .T. ) ;
#97 = CARTESIAN_POINT ( 'NONE',  ( 0.000000000000000000, 0.000000000000000000, 0.000000000000000000 ) ) ;
#98 = DIRECTION ( 'NONE',  ( 0.000000000000000000, 0.000000000000000000, 1.000000000000000000 ) ) ;
#99 = AXIS2_PLACEMENT_3D ( 'NONE', #259, #34, #239 ) ;
#100 = PRODUCT_DEFINITION_FORMATION_WITH_SPECIFIED_SOURCE ( 'ANY', '', #112, .NOT_KNOWN. ) ;
#101 = DIRECTION ( 'NONE',  ( 0.000000000000000000, 0.000000000000000000, -1.000000000000000000 ) ) ;
#102 = APPLICATION_CONTEXT ( 'automotive_design' ) ;
#103 = DIRECTION ( 'NONE',  ( 1.000000000000000000, 0.000000000000000000, 0.000000000000000000 ) ) ;
#104 = ADVANCED_FACE ( 'NONE', ( #134, #91 ), #184, .F. ) ;
#105 = CARTESIAN_POINT ( 'NONE',  ( 0.000000000000000000, 0.000000000000000000, 0.000000000000000000 ) ) ;
#106 = CIRCLE ( 'NONE', #114, 2.000000000000000000 ) ;
#107 = APPLICATION_CONTEXT ( 'automotive_design' ) ;
#108 = DIRECTION ( 'NONE',  ( 1.000000000000000000, 0.000000000000000000, 0.000000000000000000 ) ) ;
#109 = ADVANCED_FACE ( 'NONE', ( #217, #198 ), #54, .T. ) ;
#110 = CARTESIAN_POINT ( 'NONE',  ( 2.000000000000000000, 0.000000000000000000, 1.999999999999999112 ) ) ;
#111 = ORIENTED_EDGE ( 'NONE', *, *, #145, .F. ) ;
#112 = PRODUCT ( '76.04.04.0001', '76.04.04.0001', '', ( #251 ) ) ;
#113 = CARTESIAN_POINT ( 'NONE',  ( 1.360000000000000542, 0.000000000000000000, 1.599999999999999867 ) ) ;
#114 = AXIS2_PLACEMENT_3D ( 'NONE', #20, #80, #187 ) ;
#115 = CARTESIAN_POINT ( 'NONE',  ( 1.360000000000000320, 1.999999999999998668, 0.000000000000000000 ) ) ;
#116 = ORIENTED_EDGE ( 'NONE', *, *, #86, .F. ) ;
#117 = CARTESIAN_POINT ( 'NONE',  ( 0.000000000000000000, 0.000000000000000000, 0.000000000000000000 ) ) ;
#118 = DIRECTION ( 'NONE',  ( 1.000000000000000000, 0.000000000000000000, 0.000000000000000000 ) ) ;
#119 = FACE_OUTER_BOUND ( 'NONE', #72, .T. ) ;
#120 = VERTEX_POINT ( 'NONE', #18 ) ;
#121 = AXIS2_PLACEMENT_3D ( 'NONE', #124, #207, #146 ) ;
#122 = DIRECTION ( 'NONE',  ( -1.000000000000000000, -0.000000000000000000, -0.000000000000000000 ) ) ;
#123 = DIRECTION ( 'NONE',  ( -1.000000000000000000, -0.000000000000000000, -0.000000000000000000 ) ) ;
#124 = CARTESIAN_POINT ( 'NONE',  ( 11.50000000000000000, 0.000000000000000000, 0.000000000000000000 ) ) ;
#125 = AXIS2_PLACEMENT_3D ( 'NONE', #88, #236, #12 ) ;
#126 = ADVANCED_FACE ( 'NONE', ( #255, #186 ), #144, .F. ) ;
#127 = AXIS2_PLACEMENT_3D ( 'NONE', #155, #181, #218 ) ;
#128 = CARTESIAN_POINT ( 'NONE',  ( 11.50000000000000000, 0.000000000000000000, 2.500000000000000888 ) ) ;
#129 = MANIFOLD_SOLID_BREP ( 'Revolve2', #225 ) ;
#130 = VERTEX_POINT ( 'NONE', #43 ) ;
#131 = ORIENTED_EDGE ( 'NONE', *, *, #55, .F. ) ;
#132 = CIRCLE ( 'NONE', #127, 1.999999999999998668 ) ;
#133 = PLANE ( 'NONE',  #197 ) ;
#134 = FACE_OUTER_BOUND ( 'NONE', #15, .T. ) ;
#135 = ORIENTED_EDGE ( 'NONE', *, *, #158, .F. ) ;
#136 = ADVANCED_FACE ( 'NONE', ( #38 ), #227, .F. ) ;
#137 = CARTESIAN_POINT ( 'NONE',  ( 0.5000000000000000000, 0.000000000000000000, 0.000000000000000000 ) ) ;
#138 = ADVANCED_BREP_SHAPE_REPRESENTATION ( '76.04.04.0001', ( #129, #41 ), #166 ) ;
#139 = MECHANICAL_DESIGN_GEOMETRIC_PRESENTATION_REPRESENTATION (  '', ( #24 ), #179 ) ;
#140 = CARTESIAN_POINT ( 'NONE',  ( 0.000000000000000000, 0.000000000000000000, 0.000000000000000000 ) ) ;
#141 = DIRECTION ( 'NONE',  ( -0.000000000000000000, 0.000000000000000000, 1.000000000000000000 ) ) ;
#142 = EDGE_CURVE ( 'NONE', #62, #62, #165, .T. ) ;
#143 = CIRCLE ( 'NONE', #211, 1.599999999999999867 ) ;
#144 = PLANE ( 'NONE',  #81 ) ;
#145 = EDGE_CURVE ( 'NONE', #231, #231, #45, .T. ) ;
#146 = DIRECTION ( 'NONE',  ( 0.000000000000000000, 0.000000000000000000, 1.000000000000000000 ) ) ;
#147 = VERTEX_POINT ( 'NONE', #254 ) ;
#148 = ADVANCED_FACE ( 'NONE', ( #163, #164 ), #76, .T. ) ;
#149 = EDGE_LOOP ( 'NONE', ( #22 ) ) ;
#150 = CIRCLE ( 'NONE', #216, 2.999999999999999556 ) ;
#151 = FILL_AREA_STYLE_COLOUR ( '', #240 ) ;
#152 =( LENGTH_UNIT ( ) NAMED_UNIT ( * ) SI_UNIT ( .MILLI., .METRE. ) );
#153 = ORIENTED_EDGE ( 'NONE', *, *, #189, .T. ) ;
#154 = FACE_OUTER_BOUND ( 'NONE', #250, .T. ) ;
#155 = CARTESIAN_POINT ( 'NONE',  ( 1.360000000000000098, 0.000000000000000000, 0.000000000000000000 ) ) ;
#156 = UNCERTAINTY_MEASURE_WITH_UNIT (LENGTH_MEASURE( 1.000000000000000082E-05 ), #206, 'distance_accuracy_value', 'NONE');
#157 = EDGE_LOOP ( 'NONE', ( #7 ) ) ;
#158 = EDGE_CURVE ( 'NONE', #215, #215, #228, .T. ) ;
#159 = DIRECTION ( 'NONE',  ( 0.000000000000000000, 0.000000000000000000, -1.000000000000000000 ) ) ;
#160 = DIRECTION ( 'NONE',  ( -0.000000000000000000, 0.000000000000000000, 1.000000000000000000 ) ) ;
#161 = AXIS2_PLACEMENT_3D ( 'NONE', #226, #123, #77 ) ;
#162 = FACE_OUTER_BOUND ( 'NONE', #253, .T. ) ;
#163 = FACE_OUTER_BOUND ( 'NONE', #70, .T. ) ;
#164 = FACE_OUTER_BOUND ( 'NONE', #67, .T. ) ;
#165 = CIRCLE ( 'NONE', #161, 1.999999999999999112 ) ;
#166 =( GEOMETRIC_REPRESENTATION_CONTEXT ( 3 ) GLOBAL_UNCERTAINTY_ASSIGNED_CONTEXT ( ( #182 ) ) GLOBAL_UNIT_ASSIGNED_CONTEXT ( ( #213, #172, #169 ) ) REPRESENTATION_CONTEXT ( 'NONE', 'WORKASPACE' ) );
#167 = CYLINDRICAL_SURFACE ( 'NONE', #29, 3.000000000000000000 ) ;
#168 = SURFACE_STYLE_USAGE ( .BOTH. , #58 ) ;
#169 =( NAMED_UNIT ( * ) SI_UNIT ( $, .STERADIAN. ) SOLID_ANGLE_UNIT ( ) );
#170 = AXIS2_PLACEMENT_3D ( 'NONE', #137, #118, #203 ) ;
#171 =( GEOMETRIC_REPRESENTATION_CONTEXT ( 3 ) GLOBAL_UNCERTAINTY_ASSIGNED_CONTEXT ( ( #221 ) ) GLOBAL_UNIT_ASSIGNED_CONTEXT ( ( #152, #210, #195 ) ) REPRESENTATION_CONTEXT ( 'NONE', 'WORKASPACE' ) );
#172 =( NAMED_UNIT ( * ) PLANE_ANGLE_UNIT ( ) SI_UNIT ( $, .RADIAN. ) );
#173 = EDGE_CURVE ( 'NONE', #6, #6, #106, .T. ) ;
#174 = ORIENTED_EDGE ( 'NONE', *, *, #142, .F. ) ;
#175 = CARTESIAN_POINT ( 'NONE',  ( 1.360000000000000098, 0.000000000000000000, 1.999999999999998668 ) ) ;
#176 = EDGE_LOOP ( 'NONE', ( #111 ) ) ;
#177 = EDGE_LOOP ( 'NONE', ( #219 ) ) ;
#178 = DIRECTION ( 'NONE',  ( 0.000000000000000000, 0.000000000000000000, 1.000000000000000000 ) ) ;
#179 =( GEOMETRIC_REPRESENTATION_CONTEXT ( 3 ) GLOBAL_UNCERTAINTY_ASSIGNED_CONTEXT ( ( #156 ) ) GLOBAL_UNIT_ASSIGNED_CONTEXT ( ( #206, #224, #1 ) ) REPRESENTATION_CONTEXT ( 'NONE', 'WORKASPACE' ) );
#180 = AXIS2_PLACEMENT_3D ( 'NONE', #115, #73, #160 ) ;
#181 = DIRECTION ( 'NONE',  ( -1.000000000000000000, -0.000000000000000000, -0.000000000000000000 ) ) ;
#182 = UNCERTAINTY_MEASURE_WITH_UNIT (LENGTH_MEASURE( 1.000000000000000082E-05 ), #213, 'distance_accuracy_value', 'NONE');
#183 = CARTESIAN_POINT ( 'NONE',  ( 6.356633837770509191E-17, 1.711324865405184692, 0.000000000000000000 ) ) ;
#184 = PLANE ( 'NONE',  #180 ) ;
#185 = FACE_OUTER_BOUND ( 'NONE', #196, .T. ) ;
#186 = FACE_OUTER_BOUND ( 'NONE', #10, .T. ) ;
#187 = DIRECTION ( 'NONE',  ( 0.000000000000000000, 0.000000000000000000, 1.000000000000000000 ) ) ;
#188 = DIRECTION ( 'NONE',  ( 0.000000000000000000, 0.000000000000000000, 1.000000000000000000 ) ) ;
#189 = EDGE_CURVE ( 'NONE', #44, #44, #150, .T. ) ;
#190 = CARTESIAN_POINT ( 'NONE',  ( 2.000000000000000444, 0.000000000000000000, 0.000000000000000000 ) ) ;
#191 = ADVANCED_FACE ( 'NONE', ( #59, #162 ), #167, .T. ) ;
#192 = SURFACE_STYLE_USAGE ( .BOTH. , #194 ) ;
#193 = AXIS2_PLACEMENT_3D ( 'NONE', #117, #260, #90 ) ;
#194 = SURFACE_SIDE_STYLE ('',( #83 ) ) ;
#195 =( NAMED_UNIT ( * ) SI_UNIT ( $, .STERADIAN. ) SOLID_ANGLE_UNIT ( ) );
#196 = EDGE_LOOP ( 'NONE', ( #93 ) ) ;
#197 = AXIS2_PLACEMENT_3D ( 'NONE', #183, #258, #159 ) ;
#198 = FACE_OUTER_BOUND ( 'NONE', #149, .T. ) ;
#199 = ORIENTED_EDGE ( 'NONE', *, *, #55, .T. ) ;
#200 = CIRCLE ( 'NONE', #99, 3.000000000000000000 ) ;
#201 = PLANE ( 'NONE',  #57 ) ;
#202 = DIRECTION ( 'NONE',  ( 1.000000000000000000, 0.000000000000000000, 0.000000000000000000 ) ) ;
#203 = DIRECTION ( 'NONE',  ( 0.000000000000000000, 0.000000000000000000, -1.000000000000000000 ) ) ;
#204 = PRODUCT_DEFINITION ( 'UNKNOWN', '', #100, #238 ) ;
#205 = FACE_BOUND ( 'NONE', #69, .T. ) ;
#206 =( LENGTH_UNIT ( ) NAMED_UNIT ( * ) SI_UNIT ( .MILLI., .METRE. ) );
#207 = DIRECTION ( 'NONE',  ( -1.000000000000000000, -0.000000000000000000, -0.000000000000000000 ) ) ;
#208 = CIRCLE ( 'NONE', #125, 1.711324865405184692 ) ;
#209 = FILL_AREA_STYLE_COLOUR ( '', #36 ) ;
#210 =( NAMED_UNIT ( * ) PLANE_ANGLE_UNIT ( ) SI_UNIT ( $, .RADIAN. ) );
#211 = AXIS2_PLACEMENT_3D ( 'NONE', #14, #241, #233 ) ;
#212 = STYLED_ITEM ( 'NONE', ( #61 ), #138 ) ;
#213 =( LENGTH_UNIT ( ) NAMED_UNIT ( * ) SI_UNIT ( .MILLI., .METRE. ) );
#214 = CARTESIAN_POINT ( 'NONE',  ( 10.50000000000000000, 0.000000000000000000, 2.999999999999999556 ) ) ;
#215 = VERTEX_POINT ( 'NONE', #128 ) ;
#216 = AXIS2_PLACEMENT_3D ( 'NONE', #246, #95, #4 ) ;
#217 = FACE_OUTER_BOUND ( 'NONE', #252, .T. ) ;
#218 = DIRECTION ( 'NONE',  ( 0.000000000000000000, 0.000000000000000000, 1.000000000000000000 ) ) ;
#219 = ORIENTED_EDGE ( 'NONE', *, *, #145, .T. ) ;
#220 = EDGE_LOOP ( 'NONE', ( #66 ) ) ;
#221 = UNCERTAINTY_MEASURE_WITH_UNIT (LENGTH_MEASURE( 1.000000000000000082E-05 ), #152, 'distance_accuracy_value', 'NONE');
#222 = CARTESIAN_POINT ( 'NONE',  ( 0.5000000000000000000, 0.000000000000000000, 0.000000000000000000 ) ) ;
#223 = FACE_OUTER_BOUND ( 'NONE', #63, .T. ) ;
#224 =( NAMED_UNIT ( * ) PLANE_ANGLE_UNIT ( ) SI_UNIT ( $, .RADIAN. ) );
#225 = CLOSED_SHELL ( 'NONE', ( #136, #247, #191, #16, #109, #126, #51, #104, #148, #92, #74 ) ) ;
#226 = CARTESIAN_POINT ( 'NONE',  ( 2.000000000000000000, 0.000000000000000000, 0.000000000000000000 ) ) ;
#227 = PLANE ( 'NONE',  #244 ) ;
#228 = CIRCLE ( 'NONE', #230, 2.500000000000000888 ) ;
#229 = VERTEX_POINT ( 'NONE', #175 ) ;
#230 = AXIS2_PLACEMENT_3D ( 'NONE', #75, #40, #79 ) ;
#231 = VERTEX_POINT ( 'NONE', #82 ) ;
#232 = EDGE_LOOP ( 'NONE', ( #48 ) ) ;
#233 = DIRECTION ( 'NONE',  ( 0.000000000000000000, 0.000000000000000000, 1.000000000000000000 ) ) ;
#234 = PRODUCT_RELATED_PRODUCT_CATEGORY ( 'part', '', ( #112 ) ) ;
#235 = CONICAL_SURFACE ( 'NONE', #170, 1.999999999999998668, 0.5235987755983005920 ) ;
#236 = DIRECTION ( 'NONE',  ( -1.000000000000000000, -0.000000000000000000, -0.000000000000000000 ) ) ;
#237 = ORIENTED_EDGE ( 'NONE', *, *, #21, .T. ) ;
#238 = PRODUCT_DEFINITION_CONTEXT ( 'detailed design', #102, 'design' ) ;
#239 = DIRECTION ( 'NONE',  ( 0.000000000000000000, 0.000000000000000000, 1.000000000000000000 ) ) ;
#240 = COLOUR_RGB ( '',0.8274509803921568096, 0.8392156862745098200, 0.8274509803921568096 ) ;
#241 = DIRECTION ( 'NONE',  ( -1.000000000000000000, -0.000000000000000000, -0.000000000000000000 ) ) ;
#242 = FILL_AREA_STYLE ('',( #209 ) ) ;
#243 = PRESENTATION_STYLE_ASSIGNMENT (( #168 ) ) ;
#244 = AXIS2_PLACEMENT_3D ( 'NONE', #2, #37, #141 ) ;
#245 = CARTESIAN_POINT ( 'NONE',  ( 2.000000000000000000, 1.599999999999999867, 0.000000000000000000 ) ) ;
#246 = CARTESIAN_POINT ( 'NONE',  ( 10.50000000000000000, 0.000000000000000000, 0.000000000000000000 ) ) ;
#247 = ADVANCED_FACE ( 'NONE', ( #223, #205 ), #248, .T. ) ;
#248 = CONICAL_SURFACE ( 'NONE', #121, 2.500000000000000888, 0.7853981633974471688 ) ;
#249 = CARTESIAN_POINT ( 'NONE',  ( 10.50000000000000000, 0.000000000000000000, 2.000000000000000000 ) ) ;
#250 = EDGE_LOOP ( 'NONE', ( #237 ) ) ;
#251 = PRODUCT_CONTEXT ( 'NONE', #107, 'mechanical' ) ;
#252 = EDGE_LOOP ( 'NONE', ( #174 ) ) ;
#253 = EDGE_LOOP ( 'NONE', ( #85 ) ) ;
#254 = CARTESIAN_POINT ( 'NONE',  ( 11.00000000000000000, 0.000000000000000000, 3.000000000000000000 ) ) ;
#255 = FACE_BOUND ( 'NONE', #176, .T. ) ;
#256 = CIRCLE ( 'NONE', #94, 1.999999999999998668 ) ;
#257 = EDGE_LOOP ( 'NONE', ( #153 ) ) ;
#258 = DIRECTION ( 'NONE',  ( 1.000000000000000000, 0.000000000000000000, 0.000000000000000000 ) ) ;
#259 = CARTESIAN_POINT ( 'NONE',  ( 11.00000000000000000, 0.000000000000000000, 0.000000000000000000 ) ) ;
#260 = DIRECTION ( 'NONE',  ( -1.000000000000000000, -0.000000000000000000, -0.000000000000000000 ) ) ;
ENDSEC;
END-ISO-10303-21;
