ISO-10303-21;
HEADER;
FILE_DESCRIPTION (( 'STEP AP214' ),
    '1' );
FILE_NAME ('76.04.03.0008.step',
    '2021-04-02T18:00:24',
    ( '' ),
    ( '' ),
    'SwSTEP 2.0',
    'SolidWorks 2021',
    '' );
FILE_SCHEMA (( 'AUTOMOTIVE_DESIGN' ));
ENDSEC;

DATA;
#1 = AXIS2_PLACEMENT_3D ( 'NONE', #189, #91, #294 ) ;
#2 = FACE_BOUND ( 'NONE', #275, .T. ) ;
#3 = APPLICATION_CONTEXT ( 'automotive_design' ) ;
#4 = CARTESIAN_POINT ( 'NONE',  ( 8.697085019606278777, 0.6467101618175001843, -7.974743786963693459 ) ) ;
#5 = CARTESIAN_POINT ( 'NONE',  ( 6.537119866481361008, 1.986970918883058435, -7.749364203984911548 ) ) ;
#6 = STYLED_ITEM ( 'NONE', ( #35 ), #179 ) ;
#7 = AXIS2_PLACEMENT_3D ( 'NONE', #226, #31, #271 ) ;
#8 = EDGE_LOOP ( 'NONE', ( #101 ) ) ;
#9 = EDGE_LOOP ( 'NONE', ( #32 ) ) ;
#10 = ORIENTED_EDGE ( 'NONE', *, *, #186, .F. ) ;
#11 = CIRCLE ( 'NONE', #211, 6.500000000000005329 ) ;
#12 = FILL_AREA_STYLE ('',( #105 ) ) ;
#13 = EDGE_LOOP ( 'NONE', ( #99 ) ) ;
#14 = DIRECTION ( 'NONE',  ( 0.000000000000000000, 0.000000000000000000, 1.000000000000000000 ) ) ;
#15 = CARTESIAN_POINT ( 'NONE',  ( 6.274731165233891517, -1.947695273348126532, -7.759981374729036929 ) ) ;
#16 = CONICAL_SURFACE ( 'NONE', #221, 8.000000000000000000, 0.7853981633974465026 ) ;
#17 = CARTESIAN_POINT ( 'NONE',  ( 8.799999999999995381, 4.065758146820641628E-17, -8.000000000000003553 ) ) ;
#18 = CARTESIAN_POINT ( 'NONE',  ( 4.800055531509661577, -0.1316695630743572043, 7.999986117123743412 ) ) ;
#19 = CARTESIAN_POINT ( 'NONE',  ( 8.786926025712789468, -0.2630676426233926612, 7.996703123718819306 ) ) ;
#20 = ADVANCED_FACE ( 'NONE', ( #202, #100, #200, #78 ), #36, .T. ) ;
#21 = CARTESIAN_POINT ( 'NONE',  ( 4.852587021635680564, 0.5249963432426962839, 7.986424433487821162 ) ) ;
#22 = CIRCLE ( 'NONE', #153, 8.500000000000015987 ) ;
#23 = DIRECTION ( 'NONE',  ( -1.000000000000000000, -0.000000000000000000, -0.000000000000000000 ) ) ;
#24 = CARTESIAN_POINT ( 'NONE',  ( 7.062388576551843933, 1.987085825042435472, -7.749335319413516387 ) ) ;
#25 = EDGE_LOOP ( 'NONE', ( #151 ) ) ;
#26 = CARTESIAN_POINT ( 'NONE',  ( 5.210256716546072475, -1.220563788315647491, -7.907100741945479072 ) ) ;
#27 = CARTESIAN_POINT ( 'NONE',  ( 8.389898868408904420, 1.220352591867007508, -7.907132501541066283 ) ) ;
#28 = CARTESIAN_POINT ( 'NONE',  ( 5.065015314955793713, -1.003437995740827926, -7.937577104716899257 ) ) ;
#29 = CARTESIAN_POINT ( 'NONE',  ( 8.735351687604890003, -0.5212390170055394290, -7.984044170917896643 ) ) ;
#30 = AXIS2_PLACEMENT_3D ( 'NONE', #37, #150, #256 ) ;
#31 = DIRECTION ( 'NONE',  ( -1.000000000000000000, -0.000000000000000000, -0.000000000000000000 ) ) ;
#32 = ORIENTED_EDGE ( 'NONE', *, *, #57, .F. ) ;
#33 = DIRECTION ( 'NONE',  ( -1.000000000000000000, -0.000000000000000000, -0.000000000000000000 ) ) ;
#34 = EDGE_LOOP ( 'NONE', ( #10 ) ) ;
#35 = PRESENTATION_STYLE_ASSIGNMENT (( #254 ) ) ;
#36 = CYLINDRICAL_SURFACE ( 'NONE', #69, 8.000000000000001776 ) ;
#37 = CARTESIAN_POINT ( 'NONE',  ( -3.089190695281089467E-16, 6.500000000000005329, 0.000000000000000000 ) ) ;
#38 = CARTESIAN_POINT ( 'NONE',  ( 5.003218177968626890, -0.8880638145298440644, 7.951480708525320296 ) ) ;
#39 = COLOUR_RGB ( '',0.7764705882352941346, 0.7568627450980391913, 0.7372549019607843590 ) ;
#40 = FILL_AREA_STYLE ('',( #87 ) ) ;
#41 = CARTESIAN_POINT ( 'NONE',  ( 4.864855936035986872, -0.5219835080499038993, 7.983993734866757563 ) ) ;
#42 = SURFACE_STYLE_USAGE ( .BOTH. , #130 ) ;
#43 = CARTESIAN_POINT ( 'NONE',  ( 8.696373323343484785, 0.6486681265331759594, 7.974575417240541420 ) ) ;
#44 = ORIENTED_EDGE ( 'NONE', *, *, #57, .T. ) ;
#45 = UNCERTAINTY_MEASURE_WITH_UNIT (LENGTH_MEASURE( 1.000000000000000082E-05 ), #185, 'distance_accuracy_value', 'NONE');
#46 = CARTESIAN_POINT ( 'NONE',  ( 4.813213011944564634, 0.2644367505942603613, -7.996667802653983692 ) ) ;
#47 = CARTESIAN_POINT ( 'NONE',  ( 7.807551461386198710, 1.747302763448159713, 7.807529231111637102 ) ) ;
#48 = CARTESIAN_POINT ( 'NONE',  ( 4.864855936035986872, 0.5219835080499038993, -7.983993734866757563 ) ) ;
#49 = CARTESIAN_POINT ( 'NONE',  ( 4.799889474043357751, -0.2608004744982262424, -8.000027631486839041 ) ) ;
#50 = FACE_OUTER_BOUND ( 'NONE', #270, .T. ) ;
#51 = EDGE_LOOP ( 'NONE', ( #140 ) ) ;
#52 = CARTESIAN_POINT ( 'NONE',  ( -6.178381390562178934E-16, 0.000000000000000000, 0.000000000000000000 ) ) ;
#53 = APPLICATION_PROTOCOL_DEFINITION ( 'draft international standard', 'automotive_design', 1998, #306 ) ;
#54 = CARTESIAN_POINT ( 'NONE',  ( 1.499999999999999112, 0.000000000000000000, 0.000000000000000000 ) ) ;
#55 = SURFACE_STYLE_FILL_AREA ( #12 ) ;
#56 = ORIENTED_EDGE ( 'NONE', *, *, #195, .T. ) ;
#57 = EDGE_CURVE ( 'NONE', #250, #250, #11, .T. ) ;
#58 = AXIS2_PLACEMENT_3D ( 'NONE', #261, #291, #235 ) ;
#59 = CARTESIAN_POINT ( 'NONE',  ( 6.930888128050419539, -2.000069065124613132, -7.745948859878972748 ) ) ;
#60 = CARTESIAN_POINT ( 'NONE',  ( 7.447375157614360752, -1.896799698109078891, 7.772051664940886617 ) ) ;
#61 = CARTESIAN_POINT ( 'NONE',  ( 8.799999999999991829, -2.407412430484044816E-32, -8.000000000000001776 ) ) ;
#62 = CARTESIAN_POINT ( 'NONE',  ( 5.210898111231249352, -1.221342559348626899, 7.906973638967773610 ) ) ;
#63 = VERTEX_POINT ( 'NONE', #61 ) ;
#64 = CARTESIAN_POINT ( 'NONE',  ( 5.579226401574767458, 1.589529472592653425, 7.840845692126979571 ) ) ;
#65 = AXIS2_PLACEMENT_3D ( 'NONE', #247, #222, #14 ) ;
#66 = CARTESIAN_POINT ( 'NONE',  ( 6.932276148705512675, -1.999916913937860308, 7.745988145139289571 ) ) ;
#67 = PRESENTATION_STYLE_ASSIGNMENT (( #42 ) ) ;
#68 = CARTESIAN_POINT ( 'NONE',  ( 8.396936054072257960, 1.231738152970957234, 7.906804306981455532 ) ) ;
#69 = AXIS2_PLACEMENT_3D ( 'NONE', #251, #33, #299 ) ;
#70 = CARTESIAN_POINT ( 'NONE',  ( 7.445645835363753129, 1.897418820108304871, 7.771901101503600806 ) ) ;
#71 = CARTESIAN_POINT ( 'NONE',  ( 6.930888128050419539, 2.000069065124613132, 7.745948859878972748 ) ) ;
#72 = ADVANCED_FACE ( 'NONE', ( #295, #76 ), #296, .F. ) ;
#73 = CARTESIAN_POINT ( 'NONE',  ( 6.280196427791076452, 1.935707530440641255, -7.762327959773736907 ) ) ;
#74 = AXIS2_PLACEMENT_3D ( 'NONE', #80, #297, #149 ) ;
#75 = CARTESIAN_POINT ( 'NONE',  ( 6.274731165233891517, 1.947695273348126532, 7.759981374729036929 ) ) ;
#76 = FACE_OUTER_BOUND ( 'NONE', #25, .T. ) ;
#77 = DIRECTION ( 'NONE',  ( 0.000000000000000000, 0.000000000000000000, 1.000000000000000000 ) ) ;
#78 = FACE_OUTER_BOUND ( 'NONE', #272, .T. ) ;
#79 = APPLICATION_PROTOCOL_DEFINITION ( 'draft international standard', 'automotive_design', 1998, #3 ) ;
#80 = CARTESIAN_POINT ( 'NONE',  ( 45.00000000000000000, 10.00000000000000533, 0.000000000000000000 ) ) ;
#81 = ORIENTED_EDGE ( 'NONE', *, *, #170, .T. ) ;
#82 = CARTESIAN_POINT ( 'NONE',  ( 5.579226401574767458, -1.589529472592653425, -7.840845692126979571 ) ) ;
#83 = PRODUCT_DEFINITION_FORMATION_WITH_SPECIFIED_SOURCE ( 'ANY', '', #249, .NOT_KNOWN. ) ;
#84 =( NAMED_UNIT ( * ) SI_UNIT ( $, .STERADIAN. ) SOLID_ANGLE_UNIT ( ) );
#85 = CARTESIAN_POINT ( 'NONE',  ( 48.50000000000000000, 0.000000000000000000, 8.500000000000015987 ) ) ;
#86 = CARTESIAN_POINT ( 'NONE',  ( 8.030211477292654720, -1.598142704237302203, 7.840966465082273906 ) ) ;
#87 = FILL_AREA_STYLE_COLOUR ( '', #39 ) ;
#88 =( NAMED_UNIT ( * ) SI_UNIT ( $, .STERADIAN. ) SOLID_ANGLE_UNIT ( ) );
#89 = CARTESIAN_POINT ( 'NONE',  ( 8.697085019606278777, -0.6467101618175001843, 7.974743786963693459 ) ) ;
#90 = ADVANCED_FACE ( 'NONE', ( #175, #50 ), #16, .T. ) ;
#91 = DIRECTION ( 'NONE',  ( -1.000000000000000000, -0.000000000000000000, -0.000000000000000000 ) ) ;
#92 = PRODUCT_DEFINITION_SHAPE ( 'NONE', 'NONE',  #135 ) ;
#93 = CARTESIAN_POINT ( 'NONE',  ( 6.155267835212566929, 1.897786012702618264, -7.771813519182110497 ) ) ;
#94 = CARTESIAN_POINT ( 'NONE',  ( 4.902923892400390393, 0.6466718616380381368, -7.974742522495203545 ) ) ;
#95 = CARTESIAN_POINT ( 'NONE',  ( 7.447375157614360752, 1.896799698109078891, -7.772051664940886617 ) ) ;
#96 = CARTESIAN_POINT ( 'NONE',  ( 5.066076548552961079, 1.005202429705906120, -7.937347028442240493 ) ) ;
#97 = CLOSED_SHELL ( 'NONE', ( #205, #252, #264, #72, #20, #90, #285, #124 ) ) ;
#98 = CARTESIAN_POINT ( 'NONE',  ( 7.445645835363753129, -1.897418820108304871, -7.771901101503600806 ) ) ;
#99 = ORIENTED_EDGE ( 'NONE', *, *, #145, .F. ) ;
#100 = FACE_BOUND ( 'NONE', #8, .T. ) ;
#101 = ORIENTED_EDGE ( 'NONE', *, *, #274, .T. ) ;
#102 = EDGE_LOOP ( 'NONE', ( #245 ) ) ;
#103 = CARTESIAN_POINT ( 'NONE',  ( 8.696373323343484785, -0.6486681265331759594, -7.974575417240541420 ) ) ;
#104 = CARTESIAN_POINT ( 'NONE',  ( 48.50000000000000000, 0.000000000000000000, 0.000000000000000000 ) ) ;
#105 = FILL_AREA_STYLE_COLOUR ( '', #298 ) ;
#106 = FACE_OUTER_BOUND ( 'NONE', #199, .T. ) ;
#107 = CARTESIAN_POINT ( 'NONE',  ( 8.799999999999991829, 0.000000000000000000, 8.000000000000001776 ) ) ;
#108 = CARTESIAN_POINT ( 'NONE',  ( 8.799999999999991829, -0.1326938576183072371, 8.000000000000001776 ) ) ;
#109 = CARTESIAN_POINT ( 'NONE',  ( 5.571219190703965651, -1.599608796201501759, 7.840706429540704292 ) ) ;
#110 = CARTESIAN_POINT ( 'NONE',  ( 7.807974722533955969, -1.746929224812576287, 7.807610581511102765 ) ) ;
#111 = CARTESIAN_POINT ( 'NONE',  ( 5.002431116384973286, 0.8864286355026947950, 7.951659787253108291 ) ) ;
#112 = AXIS2_PLACEMENT_3D ( 'NONE', #122, #223, #260 ) ;
#113 = CARTESIAN_POINT ( 'NONE',  ( 6.535070414041910247, 1.999861041126618000, 7.746002571436383377 ) ) ;
#114 = CARTESIAN_POINT ( 'NONE',  ( 5.795215669357679289, 1.734157020499708546, 7.810132171752178998 ) ) ;
#115 = CARTESIAN_POINT ( 'NONE',  ( 5.476913010139475624, -1.505471989113274178, -7.857629612316067380 ) ) ;
#116 = CIRCLE ( 'NONE', #112, 10.00000000000000533 ) ;
#117 = CARTESIAN_POINT ( 'NONE',  ( 7.807974722533955969, 1.746929224812576287, -7.807610581511102765 ) ) ;
#118 = CARTESIAN_POINT ( 'NONE',  ( 48.50000000000000000, 0.000000000000000000, 0.000000000000000000 ) ) ;
#119 = VERTEX_POINT ( 'NONE', #228 ) ;
#120 = B_SPLINE_CURVE_WITH_KNOTS ( 'NONE', 3,
 ( #184, #108, #19, #279, #89, #307, #234, #237, #161, #86, #110, #60, #188, #263, #66, #210, #284, #182, #262, #281, #109, #158, #62, #259, #38, #156, #41, #134, #18, #236, #21, #111, #212, #310, #309, #283, #64, #114, #196, #75, #113, #71, #241, #287, #70, #47, #218, #68, #238, #43, #167, #220, #192, #139 ),
 .UNSPECIFIED., .T., .F.,
 ( 4, 2, 2, 2, 2, 2, 2, 2, 2, 2, 2, 2, 2, 2, 2, 2, 2, 2, 2, 2, 2, 2, 2, 2, 2, 2, 4 ),
 ( 0.000000000000000000, 0.0003923156643295058082, 0.0007846313286590118332, 0.001176946992988517912, 0.001569262657318023883, 0.002353893985977036692, 0.002746209650306543314, 0.003138525314636049501, 0.003530840978965555689, 0.003923156643295062744, 0.004707787971954075119, 0.005100103636283582174, 0.005492419300613088362, 0.005884734964942594550, 0.006277050629272099870, 0.007061681957931113113, 0.007453997622260618433, 0.007846313286590125488, 0.008238628950919630808, 0.008630944615249136129, 0.009415575943908145035, 0.009807891608237650355, 0.01020020727256715394, 0.01098483860122616285, 0.01176946992988517175, 0.01216178559421467707, 0.01255410125854418066 ),
 .UNSPECIFIED. ) ;
#121 = FACE_OUTER_BOUND ( 'NONE', #102, .T. ) ;
#122 = CARTESIAN_POINT ( 'NONE',  ( 47.00000000000000000, 0.000000000000000000, 0.000000000000000000 ) ) ;
#123 = ORIENTED_EDGE ( 'NONE', *, *, #219, .T. ) ;
#124 = ADVANCED_FACE ( 'NONE', ( #126, #121 ), #154, .F. ) ;
#125 = CARTESIAN_POINT ( 'NONE',  ( 45.00000000000000000, 0.000000000000000000, 8.000000000000003553 ) ) ;
#126 = FACE_OUTER_BOUND ( 'NONE', #201, .T. ) ;
#127 = PLANE ( 'NONE',  #30 ) ;
#128 = EDGE_LOOP ( 'NONE', ( #193 ) ) ;
#129 = CARTESIAN_POINT ( 'NONE',  ( -6.178381390562178934E-16, 0.000000000000000000, 6.500000000000005329 ) ) ;
#130 = SURFACE_SIDE_STYLE ('',( #257 ) ) ;
#131 = CARTESIAN_POINT ( 'NONE',  ( 7.317979211385751803, -1.936194592322518337, -7.762206047772254536 ) ) ;
#132 =( GEOMETRIC_REPRESENTATION_CONTEXT ( 3 ) GLOBAL_UNCERTAINTY_ASSIGNED_CONTEXT ( ( #45 ) ) GLOBAL_UNIT_ASSIGNED_CONTEXT ( ( #185, #136, #88 ) ) REPRESENTATION_CONTEXT ( 'NONE', 'WORKASPACE' ) );
#133 = DIRECTION ( 'NONE',  ( 0.000000000000000000, 0.000000000000000000, 1.000000000000000000 ) ) ;
#134 = CARTESIAN_POINT ( 'NONE',  ( 4.813213011944564634, -0.2644367505942603613, 7.996667802653983692 ) ) ;
#135 = PRODUCT_DEFINITION ( 'UNKNOWN', '', #83, #239 ) ;
#136 =( NAMED_UNIT ( * ) PLANE_ANGLE_UNIT ( ) SI_UNIT ( $, .RADIAN. ) );
#137 = DIRECTION ( 'NONE',  ( -0.000000000000000000, 0.000000000000000000, 1.000000000000000000 ) ) ;
#138 = AXIS2_PLACEMENT_3D ( 'NONE', #255, #146, #248 ) ;
#139 = CARTESIAN_POINT ( 'NONE',  ( 8.799999999999995381, -4.065758146820641628E-17, 8.000000000000003553 ) ) ;
#140 = ORIENTED_EDGE ( 'NONE', *, *, #227, .T. ) ;
#141 = DIRECTION ( 'NONE',  ( 0.000000000000000000, 0.000000000000000000, 1.000000000000000000 ) ) ;
#142 = CARTESIAN_POINT ( 'NONE',  ( 8.535031877734535755, 1.003346023807034193, -7.937587895696920803 ) ) ;
#143 = CARTESIAN_POINT ( 'NONE',  ( 5.002431116384973286, -0.8864286355026947950, -7.951659787253108291 ) ) ;
#144 = CARTESIAN_POINT ( 'NONE',  ( 5.292627136637890750, -1.320920945228129861, -7.890751351475262076 ) ) ;
#145 = EDGE_CURVE ( 'NONE', #282, #282, #191, .T. ) ;
#146 = DIRECTION ( 'NONE',  ( -0.000000000000000000, -0.000000000000000000, 1.000000000000000000 ) ) ;
#147 = AXIS2_PLACEMENT_3D ( 'NONE', #231, #160, #133 ) ;
#148 = EDGE_LOOP ( 'NONE', ( #56 ) ) ;
#149 = DIRECTION ( 'NONE',  ( 0.000000000000000000, 0.000000000000000000, -1.000000000000000000 ) ) ;
#150 = DIRECTION ( 'NONE',  ( 1.000000000000000000, 0.000000000000000000, 0.000000000000000000 ) ) ;
#151 = ORIENTED_EDGE ( 'NONE', *, *, #186, .T. ) ;
#152 = FACE_OUTER_BOUND ( 'NONE', #314, .T. ) ;
#153 = AXIS2_PLACEMENT_3D ( 'NONE', #104, #204, #229 ) ;
#154 = CYLINDRICAL_SURFACE ( 'NONE', #138, 2.000000000000000000 ) ;
#155 = CARTESIAN_POINT ( 'NONE',  ( 1.499999999999999112, 0.000000000000000000, 8.000000000000000000 ) ) ;
#156 = CARTESIAN_POINT ( 'NONE',  ( 4.902923892400390393, -0.6466718616380381368, 7.974742522495203545 ) ) ;
#157 = CARTESIAN_POINT ( 'NONE',  ( 8.545959015022969396, -1.009770071519058510, -7.939701385896899666 ) ) ;
#158 = CARTESIAN_POINT ( 'NONE',  ( 5.293284783578028119, -1.321730646216308980, 7.890620032838621789 ) ) ;
#159 = PRODUCT_RELATED_PRODUCT_CATEGORY ( 'part', '', ( #249 ) ) ;
#160 = DIRECTION ( 'NONE',  ( -1.000000000000000000, -0.000000000000000000, -0.000000000000000000 ) ) ;
#161 = CARTESIAN_POINT ( 'NONE',  ( 8.305793685546051464, -1.322669827304608248, 7.890452986384936196 ) ) ;
#162 = CARTESIAN_POINT ( 'NONE',  ( 8.305793685546051464, 1.322669827304608248, -7.890452986384936196 ) ) ;
#163 = STYLED_ITEM ( 'NONE', ( #67 ), #216 ) ;
#164 = ORIENTED_EDGE ( 'NONE', *, *, #274, .F. ) ;
#165 = UNCERTAINTY_MEASURE_WITH_UNIT (LENGTH_MEASURE( 1.000000000000000082E-05 ), #232, 'distance_accuracy_value', 'NONE');
#166 = CARTESIAN_POINT ( 'NONE',  ( 8.786926025712789468, 0.2630676426233926612, -7.996703123718819306 ) ) ;
#167 = CARTESIAN_POINT ( 'NONE',  ( 8.735351687604890003, 0.5212390170055394290, 7.984044170917896643 ) ) ;
#168 = CARTESIAN_POINT ( 'NONE',  ( 5.210898111231249352, 1.221342559348626899, -7.906973638967773610 ) ) ;
#169 = CARTESIAN_POINT ( 'NONE',  ( 8.799999999999995381, 4.065758146820641628E-17, -8.000000000000003553 ) ) ;
#170 = EDGE_CURVE ( 'NONE', #302, #302, #22, .T. ) ;
#171 = ORIENTED_EDGE ( 'NONE', *, *, #195, .F. ) ;
#172 = DIRECTION ( 'NONE',  ( 0.000000000000000000, 0.000000000000000000, -1.000000000000000000 ) ) ;
#173 = DIRECTION ( 'NONE',  ( -1.000000000000000000, -0.000000000000000000, -0.000000000000000000 ) ) ;
#174 = PRODUCT_CONTEXT ( 'NONE', #3, 'mechanical' ) ;
#175 = FACE_BOUND ( 'NONE', #9, .T. ) ;
#176 = CARTESIAN_POINT ( 'NONE',  ( 5.909847954400285985, -1.795824432500143120, -7.796006770207849712 ) ) ;
#177 = DIRECTION ( 'NONE',  ( 1.000000000000000000, 0.000000000000000000, 0.000000000000000000 ) ) ;
#178 = CARTESIAN_POINT ( 'NONE',  ( 8.799999999999997158, -0.1326938576183066543, -8.000000000000005329 ) ) ;
#179 = ADVANCED_BREP_SHAPE_REPRESENTATION ( '76.04.03.0008', ( #216, #58 ), #242 ) ;
#180 = PLANE ( 'NONE',  #277 ) ;
#181 = VERTEX_POINT ( 'NONE', #155 ) ;
#182 = CARTESIAN_POINT ( 'NONE',  ( 6.280196427791076452, -1.935707530440641255, 7.762327959773736907 ) ) ;
#183 = CARTESIAN_POINT ( 'NONE',  ( 5.795215669357679289, -1.734157020499708546, -7.810132171752178998 ) ) ;
#184 = CARTESIAN_POINT ( 'NONE',  ( 8.799999999999995381, -4.065758146820641628E-17, 8.000000000000003553 ) ) ;
#185 =( LENGTH_UNIT ( ) NAMED_UNIT ( * ) SI_UNIT ( .MILLI., .METRE. ) );
#186 = EDGE_CURVE ( 'NONE', #280, #280, #253, .T. ) ;
#187 = PRESENTATION_LAYER_ASSIGNMENT (  '', '', ( #163 ) ) ;
#188 = CARTESIAN_POINT ( 'NONE',  ( 7.320786906153032625, -1.935494469010187402, 7.762381666036874961 ) ) ;
#189 = CARTESIAN_POINT ( 'NONE',  ( 0.000000000000000000, 0.000000000000000000, 0.000000000000000000 ) ) ;
#190 = CARTESIAN_POINT ( 'NONE',  ( 5.791080246480674987, 1.746758766470990043, -7.807659208723350730 ) ) ;
#191 = CIRCLE ( 'NONE', #7, 8.000000000000003553 ) ;
#192 = CARTESIAN_POINT ( 'NONE',  ( 8.799999999999997158, 0.1326938576183066543, 8.000000000000005329 ) ) ;
#193 = ORIENTED_EDGE ( 'NONE', *, *, #219, .F. ) ;
#194 = CARTESIAN_POINT ( 'NONE',  ( 8.799999999999991829, 0.1326938576183072371, -8.000000000000001776 ) ) ;
#195 = EDGE_CURVE ( 'NONE', #119, #119, #116, .T. ) ;
#196 = CARTESIAN_POINT ( 'NONE',  ( 5.909847954400285985, 1.795824432500143120, 7.796006770207849712 ) ) ;
#197 = PRESENTATION_LAYER_ASSIGNMENT (  '', '', ( #6 ) ) ;
#198 =( NAMED_UNIT ( * ) PLANE_ANGLE_UNIT ( ) SI_UNIT ( $, .RADIAN. ) );
#199 = EDGE_LOOP ( 'NONE', ( #276 ) ) ;
#200 = FACE_OUTER_BOUND ( 'NONE', #128, .T. ) ;
#201 = EDGE_LOOP ( 'NONE', ( #164 ) ) ;
#202 = FACE_BOUND ( 'NONE', #51, .T. ) ;
#203 = SURFACE_SIDE_STYLE ('',( #55 ) ) ;
#204 = DIRECTION ( 'NONE',  ( -1.000000000000000000, -0.000000000000000000, -0.000000000000000000 ) ) ;
#205 = ADVANCED_FACE ( 'NONE', ( #106 ), #180, .F. ) ;
#206 =( LENGTH_UNIT ( ) NAMED_UNIT ( * ) SI_UNIT ( .MILLI., .METRE. ) );
#207 = CARTESIAN_POINT ( 'NONE',  ( 8.786922371444441993, -0.2634687029185876495, -7.996701549926656050 ) ) ;
#208 = MECHANICAL_DESIGN_GEOMETRIC_PRESENTATION_REPRESENTATION (  '', ( #163 ), #246 ) ;
#209 = DIRECTION ( 'NONE',  ( -1.000000000000000000, 0.000000000000000000, -0.000000000000000000 ) ) ;
#210 = CARTESIAN_POINT ( 'NONE',  ( 6.670248399535018358, -2.000082289394082835, 7.745945445389172512 ) ) ;
#211 = AXIS2_PLACEMENT_3D ( 'NONE', #52, #173, #77 ) ;
#212 = CARTESIAN_POINT ( 'NONE',  ( 5.065015314955793713, 1.003437995740827926, 7.937577104716899257 ) ) ;
#213 = FACE_OUTER_BOUND ( 'NONE', #148, .T. ) ;
#214 = SHAPE_DEFINITION_REPRESENTATION ( #92, #179 ) ;
#215 = CYLINDRICAL_SURFACE ( 'NONE', #1, 10.00000000000000533 ) ;
#216 = MANIFOLD_SOLID_BREP ( 'Cut-Extrude1', #97 ) ;
#217 = CARTESIAN_POINT ( 'NONE',  ( 8.596503950012493789, 0.8886726971174979672, -7.951417064807503543 ) ) ;
#218 = CARTESIAN_POINT ( 'NONE',  ( 8.029581783050074861, 1.598596971432013403, 7.840868634871601905 ) ) ;
#219 = EDGE_CURVE ( 'NONE', #181, #181, #225, .T. ) ;
#220 = CARTESIAN_POINT ( 'NONE',  ( 8.786922371444441993, 0.2634687029185876495, 7.996701549926656050 ) ) ;
#221 = AXIS2_PLACEMENT_3D ( 'NONE', #54, #177, #172 ) ;
#222 = DIRECTION ( 'NONE',  ( -1.000000000000000000, -0.000000000000000000, -0.000000000000000000 ) ) ;
#223 = DIRECTION ( 'NONE',  ( -1.000000000000000000, -0.000000000000000000, -0.000000000000000000 ) ) ;
#224 = EDGE_LOOP ( 'NONE', ( #171 ) ) ;
#225 = CIRCLE ( 'NONE', #147, 8.000000000000000000 ) ;
#226 = CARTESIAN_POINT ( 'NONE',  ( 45.00000000000000000, 0.000000000000000000, 0.000000000000000000 ) ) ;
#227 = EDGE_CURVE ( 'NONE', #273, #273, #120, .T. ) ;
#228 = CARTESIAN_POINT ( 'NONE',  ( 47.00000000000000000, 0.000000000000000000, 10.00000000000000533 ) ) ;
#229 = DIRECTION ( 'NONE',  ( 0.000000000000000000, 0.000000000000000000, 1.000000000000000000 ) ) ;
#230 = CARTESIAN_POINT ( 'NONE',  ( 8.029581783050074861, -1.598596971432013403, -7.840868634871601905 ) ) ;
#231 = CARTESIAN_POINT ( 'NONE',  ( 1.499999999999999112, 0.000000000000000000, 0.000000000000000000 ) ) ;
#232 =( LENGTH_UNIT ( ) NAMED_UNIT ( * ) SI_UNIT ( .MILLI., .METRE. ) );
#233 = CONICAL_SURFACE ( 'NONE', #304, 8.500000000000015987, 0.7853981633974442822 ) ;
#234 = CARTESIAN_POINT ( 'NONE',  ( 8.535031877734535755, -1.003346023807034193, 7.937587895696920803 ) ) ;
#235 = DIRECTION ( 'NONE',  ( 1.000000000000000000, 0.000000000000000000, 0.000000000000000000 ) ) ;
#236 = CARTESIAN_POINT ( 'NONE',  ( 4.799889474043357751, 0.2608004744982262424, 8.000027631486839041 ) ) ;
#237 = CARTESIAN_POINT ( 'NONE',  ( 8.389898868408904420, -1.220352591867007508, 7.907132501541066283 ) ) ;
#238 = CARTESIAN_POINT ( 'NONE',  ( 8.545959015022969396, 1.009770071519058510, 7.939701385896899666 ) ) ;
#239 = PRODUCT_DEFINITION_CONTEXT ( 'detailed design', #306, 'design' ) ;
#240 = CARTESIAN_POINT ( 'NONE',  ( 4.800055531509661577, 0.1316695630743572043, -7.999986117123743412 ) ) ;
#241 = CARTESIAN_POINT ( 'NONE',  ( 7.061063984271864769, 1.987208484000324571, 7.749302850484569127 ) ) ;
#242 =( GEOMETRIC_REPRESENTATION_CONTEXT ( 3 ) GLOBAL_UNCERTAINTY_ASSIGNED_CONTEXT ( ( #165 ) ) GLOBAL_UNIT_ASSIGNED_CONTEXT ( ( #232, #198, #244 ) ) REPRESENTATION_CONTEXT ( 'NONE', 'WORKASPACE' ) );
#243 = CARTESIAN_POINT ( 'NONE',  ( 5.293284783578028119, 1.321730646216308980, -7.890620032838621789 ) ) ;
#244 =( NAMED_UNIT ( * ) SI_UNIT ( $, .STERADIAN. ) SOLID_ANGLE_UNIT ( ) );
#245 = ORIENTED_EDGE ( 'NONE', *, *, #227, .F. ) ;
#246 =( GEOMETRIC_REPRESENTATION_CONTEXT ( 3 ) GLOBAL_UNCERTAINTY_ASSIGNED_CONTEXT ( ( #289 ) ) GLOBAL_UNIT_ASSIGNED_CONTEXT ( ( #206, #303, #84 ) ) REPRESENTATION_CONTEXT ( 'NONE', 'WORKASPACE' ) );
#247 = CARTESIAN_POINT ( 'NONE',  ( 45.00000000000000000, 0.000000000000000000, 0.000000000000000000 ) ) ;
#248 = DIRECTION ( 'NONE',  ( 1.000000000000000000, 0.000000000000000000, 0.000000000000000000 ) ) ;
#249 = PRODUCT ( '76.04.03.0008', '76.04.03.0008', '', ( #174 ) ) ;
#250 = VERTEX_POINT ( 'NONE', #129 ) ;
#251 = CARTESIAN_POINT ( 'NONE',  ( 0.000000000000000000, 0.000000000000000000, 0.000000000000000000 ) ) ;
#252 = ADVANCED_FACE ( 'NONE', ( #292, #2 ), #233, .T. ) ;
#253 = CIRCLE ( 'NONE', #65, 10.00000000000000533 ) ;
#254 = SURFACE_STYLE_USAGE ( .BOTH. , #203 ) ;
#255 = CARTESIAN_POINT ( 'NONE',  ( 6.799999999999991829, -2.407412430484044816E-32, -10.00000000000000533 ) ) ;
#256 = DIRECTION ( 'NONE',  ( 0.000000000000000000, 0.000000000000000000, -1.000000000000000000 ) ) ;
#257 = SURFACE_STYLE_FILL_AREA ( #40 ) ;
#258 = CARTESIAN_POINT ( 'NONE',  ( 8.396936054072257960, -1.231738152970957234, -7.906804306981455532 ) ) ;
#259 = CARTESIAN_POINT ( 'NONE',  ( 5.066076548552961079, -1.005202429705906120, 7.937347028442240493 ) ) ;
#260 = DIRECTION ( 'NONE',  ( 0.000000000000000000, 0.000000000000000000, 1.000000000000000000 ) ) ;
#261 = CARTESIAN_POINT ( 'NONE',  ( 0.000000000000000000, 0.000000000000000000, 0.000000000000000000 ) ) ;
#262 = CARTESIAN_POINT ( 'NONE',  ( 6.155267835212566929, -1.897786012702618264, 7.771813519182110497 ) ) ;
#263 = CARTESIAN_POINT ( 'NONE',  ( 7.062388576551843933, -1.987085825042435472, 7.749335319413516387 ) ) ;
#264 = ADVANCED_FACE ( 'NONE', ( #267, #213 ), #215, .T. ) ;
#265 = CARTESIAN_POINT ( 'NONE',  ( 7.320786906153032625, 1.935494469010187402, -7.762381666036874961 ) ) ;
#266 = CARTESIAN_POINT ( 'NONE',  ( 8.030211477292654720, 1.598142704237302203, -7.840966465082273906 ) ) ;
#267 = FACE_OUTER_BOUND ( 'NONE', #34, .T. ) ;
#268 = CARTESIAN_POINT ( 'NONE',  ( 5.571219190703965651, 1.599608796201501759, -7.840706429540704292 ) ) ;
#269 = CARTESIAN_POINT ( 'NONE',  ( 5.003218177968626890, 0.8880638145298440644, -7.951480708525320296 ) ) ;
#270 = EDGE_LOOP ( 'NONE', ( #123 ) ) ;
#271 = DIRECTION ( 'NONE',  ( 0.000000000000000000, 0.000000000000000000, 1.000000000000000000 ) ) ;
#272 = EDGE_LOOP ( 'NONE', ( #301 ) ) ;
#273 = VERTEX_POINT ( 'NONE', #107 ) ;
#274 = EDGE_CURVE ( 'NONE', #63, #63, #312, .T. ) ;
#275 = EDGE_LOOP ( 'NONE', ( #81 ) ) ;
#276 = ORIENTED_EDGE ( 'NONE', *, *, #170, .F. ) ;
#277 = AXIS2_PLACEMENT_3D ( 'NONE', #286, #209, #137 ) ;
#278 = CARTESIAN_POINT ( 'NONE',  ( 7.807551461386198710, -1.747302763448159713, -7.807529231111637102 ) ) ;
#279 = CARTESIAN_POINT ( 'NONE',  ( 8.735796328908492114, -0.5193959850005185341, 7.984152631573065761 ) ) ;
#280 = VERTEX_POINT ( 'NONE', #308 ) ;
#281 = CARTESIAN_POINT ( 'NONE',  ( 5.791080246480674987, -1.746758766470990043, 7.807659208723350730 ) ) ;
#282 = VERTEX_POINT ( 'NONE', #125 ) ;
#283 = CARTESIAN_POINT ( 'NONE',  ( 5.476913010139475624, 1.505471989113274178, 7.857629612316067380 ) ) ;
#284 = CARTESIAN_POINT ( 'NONE',  ( 6.537119866481361008, -1.986970918883058435, 7.749364203984911548 ) ) ;
#285 = ADVANCED_FACE ( 'NONE', ( #152 ), #127, .F. ) ;
#286 = CARTESIAN_POINT ( 'NONE',  ( 48.50000000000000000, 0.000000000000000000, 0.000000000000000000 ) ) ;
#287 = CARTESIAN_POINT ( 'NONE',  ( 7.317979211385751803, 1.936194592322518337, 7.762206047772254536 ) ) ;
#288 = MECHANICAL_DESIGN_GEOMETRIC_PRESENTATION_REPRESENTATION (  '', ( #6 ), #132 ) ;
#289 = UNCERTAINTY_MEASURE_WITH_UNIT (LENGTH_MEASURE( 1.000000000000000082E-05 ), #206, 'distance_accuracy_value', 'NONE');
#290 = CARTESIAN_POINT ( 'NONE',  ( 4.852587021635680564, -0.5249963432426962839, -7.986424433487821162 ) ) ;
#291 = DIRECTION ( 'NONE',  ( 0.000000000000000000, 0.000000000000000000, 1.000000000000000000 ) ) ;
#292 = FACE_OUTER_BOUND ( 'NONE', #224, .T. ) ;
#293 = CARTESIAN_POINT ( 'NONE',  ( 6.670248399535018358, 2.000082289394082835, -7.745945445389172512 ) ) ;
#294 = DIRECTION ( 'NONE',  ( 0.000000000000000000, 0.000000000000000000, 1.000000000000000000 ) ) ;
#295 = FACE_BOUND ( 'NONE', #13, .T. ) ;
#296 = PLANE ( 'NONE',  #74 ) ;
#297 = DIRECTION ( 'NONE',  ( 1.000000000000000000, 0.000000000000000000, 0.000000000000000000 ) ) ;
#298 = COLOUR_RGB ( '',0.7764705882352941346, 0.7568627450980391913, 0.7372549019607843590 ) ;
#299 = DIRECTION ( 'NONE',  ( 0.000000000000000000, 0.000000000000000000, 1.000000000000000000 ) ) ;
#300 = CARTESIAN_POINT ( 'NONE',  ( 6.535070414041910247, -1.999861041126618000, -7.746002571436383377 ) ) ;
#301 = ORIENTED_EDGE ( 'NONE', *, *, #145, .T. ) ;
#302 = VERTEX_POINT ( 'NONE', #85 ) ;
#303 =( NAMED_UNIT ( * ) PLANE_ANGLE_UNIT ( ) SI_UNIT ( $, .RADIAN. ) );
#304 = AXIS2_PLACEMENT_3D ( 'NONE', #118, #23, #141 ) ;
#305 = CARTESIAN_POINT ( 'NONE',  ( 7.061063984271864769, -1.987208484000324571, -7.749302850484569127 ) ) ;
#306 = APPLICATION_CONTEXT ( 'automotive_design' ) ;
#307 = CARTESIAN_POINT ( 'NONE',  ( 8.596503950012493789, -0.8886726971174979672, 7.951417064807503543 ) ) ;
#308 = CARTESIAN_POINT ( 'NONE',  ( 45.00000000000000000, 0.000000000000000000, 10.00000000000000533 ) ) ;
#309 = CARTESIAN_POINT ( 'NONE',  ( 5.292627136637890750, 1.320920945228129861, 7.890751351475262076 ) ) ;
#310 = CARTESIAN_POINT ( 'NONE',  ( 5.210256716546072475, 1.220563788315647491, 7.907100741945479072 ) ) ;
#311 = CARTESIAN_POINT ( 'NONE',  ( 8.735796328908492114, 0.5193959850005185341, -7.984152631573065761 ) ) ;
#312 = B_SPLINE_CURVE_WITH_KNOTS ( 'NONE', 3,
 ( #169, #194, #166, #311, #4, #217, #142, #27, #162, #266, #117, #95, #265, #24, #313, #293, #5, #73, #93, #190, #268, #243, #168, #96, #269, #94, #48, #46, #240, #49, #290, #143, #28, #26, #144, #115, #82, #183, #176, #15, #300, #59, #305, #131, #98, #278, #230, #258, #157, #103, #29, #207, #178, #17 ),
 .UNSPECIFIED., .T., .F.,
 ( 4, 2, 2, 2, 2, 2, 2, 2, 2, 2, 2, 2, 2, 2, 2, 2, 2, 2, 2, 2, 2, 2, 2, 2, 2, 2, 4 ),
 ( 0.000000000000000000, 0.0003923156643295058082, 0.0007846313286590118332, 0.001176946992988517912, 0.001569262657318023883, 0.002353893985977036692, 0.002746209650306543314, 0.003138525314636049501, 0.003530840978965555689, 0.003923156643295062744, 0.004707787971954075119, 0.005100103636283582174, 0.005492419300613088362, 0.005884734964942594550, 0.006277050629272099870, 0.007061681957931113113, 0.007453997622260618433, 0.007846313286590125488, 0.008238628950919630808, 0.008630944615249136129, 0.009415575943908145035, 0.009807891608237650355, 0.01020020727256715394, 0.01098483860122616285, 0.01176946992988517175, 0.01216178559421467707, 0.01255410125854418066 ),
 .UNSPECIFIED. ) ;
#313 = CARTESIAN_POINT ( 'NONE',  ( 6.932276148705512675, 1.999916913937860308, -7.745988145139289571 ) ) ;
#314 = EDGE_LOOP ( 'NONE', ( #44 ) ) ;
ENDSEC;
END-ISO-10303-21;
