ISO-10303-21;
HEADER;
FILE_DESCRIPTION (( 'STEP AP214' ),
    '1' );
FILE_NAME ('76.04.03.0006.step',
    '2021-04-02T18:00:22',
    ( '' ),
    ( '' ),
    'SwSTEP 2.0',
    'SolidWorks 2021',
    '' );
FILE_SCHEMA (( 'AUTOMOTIVE_DESIGN' ));
ENDSEC;

DATA;
#1 = CARTESIAN_POINT ( 'NONE',  ( 7.089069900028459159, -1.221418717805088816, 5.875397347880998211 ) ) ;
#2 = CARTESIAN_POINT ( 'NONE',  ( 4.177705992343601515, -1.506147378463205566, 5.808656500676011802 ) ) ;
#3 = DIRECTION ( 'NONE',  ( 1.000000000000000000, 0.000000000000000000, 0.000000000000000000 ) ) ;
#4 = CIRCLE ( 'NONE', #254, 6.000000000000001776 ) ;
#5 = EDGE_LOOP ( 'NONE', ( #133 ) ) ;
#6 = VERTEX_POINT ( 'NONE', #257 ) ;
#7 = EDGE_CURVE ( 'NONE', #142, #142, #290, .T. ) ;
#8 = EDGE_LOOP ( 'NONE', ( #195 ) ) ;
#9 = CARTESIAN_POINT ( 'NONE',  ( 7.486836486607476360, 0.2639033490118382064, -5.995575825653401303 ) ) ;
#10 = CARTESIAN_POINT ( 'NONE',  ( 7.500000000000007994, 0.1331554747843276820, -6.000000000000001776 ) ) ;
#11 = CARTESIAN_POINT ( 'NONE',  ( 1.499999999999999556, 0.000000000000000000, 0.000000000000000000 ) ) ;
#12 = CARTESIAN_POINT ( 'NONE',  ( 7.500000000000008882, 5.421010862427522170E-17, 6.000000000000002665 ) ) ;
#13 = CARTESIAN_POINT ( 'NONE',  ( 7.005514622960268056, -1.322962990986547016, -5.853089889558318326 ) ) ;
#14 = STYLED_ITEM ( 'NONE', ( #60 ), #117 ) ;
#15 = FACE_BOUND ( 'NONE', #256, .T. ) ;
#16 = CARTESIAN_POINT ( 'NONE',  ( 7.089491420560611878, -1.220834293754859301, -5.875513733641011704 ) ) ;
#17 = CYLINDRICAL_SURFACE ( 'NONE', #145, 8.500000000000003553 ) ;
#18 = DIRECTION ( 'NONE',  ( 0.000000000000000000, 0.000000000000000000, 1.000000000000000000 ) ) ;
#19 = CARTESIAN_POINT ( 'NONE',  ( 7.500000000000007994, -0.1331554747843276820, 6.000000000000001776 ) ) ;
#20 = DIRECTION ( 'NONE',  ( 0.000000000000000000, 0.000000000000000000, 1.000000000000000000 ) ) ;
#21 = FACE_OUTER_BOUND ( 'NONE', #300, .T. ) ;
#22 = CIRCLE ( 'NONE', #150, 6.000000000000000000 ) ;
#23 = DIRECTION ( 'NONE',  ( -1.000000000000000000, -0.000000000000000000, -0.000000000000000000 ) ) ;
#24 = EDGE_LOOP ( 'NONE', ( #280 ) ) ;
#25 = CARTESIAN_POINT ( 'NONE',  ( 7.500000000000007105, -2.407412430484044816E-32, -6.000000000000000888 ) ) ;
#26 = PRODUCT_RELATED_PRODUCT_CATEGORY ( 'part', '', ( #27 ) ) ;
#27 = PRODUCT ( '76.04.03.0006', '76.04.03.0006', '', ( #80 ) ) ;
#28 = ORIENTED_EDGE ( 'NONE', *, *, #73, .T. ) ;
#29 = CARTESIAN_POINT ( 'NONE',  ( 7.435413015933839631, 0.5209032848921311132, 5.978731772073636819 ) ) ;
#30 = FACE_BOUND ( 'NONE', #308, .T. ) ;
#31 = COLOUR_RGB ( '',0.7764705882352941346, 0.7568627450980391913, 0.7372549019607843590 ) ;
#32 = DIRECTION ( 'NONE',  ( -1.000000000000000000, -0.000000000000000000, -0.000000000000000000 ) ) ;
#33 = FACE_OUTER_BOUND ( 'NONE', #101, .T. ) ;
#34 = FACE_OUTER_BOUND ( 'NONE', #5, .T. ) ;
#35 = B_SPLINE_CURVE_WITH_KNOTS ( 'NONE', 3,
 ( #271, #10, #9, #156, #229, #299, #76, #198, #201, #180, #222, #253, #132, #100, #197, #40, #106, #62, #209, #260, #138, #288, #315, #203, #235, #88, #64, #187, #258, #140, #164, #287, #263, #320, #286, #231, #285, #237, #84, #206, #161, #182, #65, #184, #163, #186, #37, #111, #90, #13, #16, #188, #108, #311, #112, #110, #39, #139 ),
 .UNSPECIFIED., .T., .F.,
 ( 4, 2, 2, 2, 2, 2, 2, 2, 2, 2, 2, 2, 2, 2, 2, 2, 2, 2, 2, 2, 2, 2, 2, 2, 2, 2, 2, 2, 4 ),
 ( 0.000000000000000000, 0.0003935945383190280118, 0.0007871890766380560235, 0.001180783614957084090, 0.001574378153276112047, 0.002361567229914170781, 0.002755161768233198739, 0.003148756306552227130, 0.003542350844871255088, 0.003935945383190283045, 0.004329539921509311003, 0.004723134459828338960, 0.005116728998147366918, 0.005510323536466394875, 0.005903918074785422833, 0.006297512613104450790, 0.007084701689742506706, 0.007478296228061534663, 0.007871890766380562621, 0.008659079843018618536, 0.009052674381337647361, 0.009446268919656677920, 0.009839863457975706745, 0.01023345799629473730, 0.01102064707293279495, 0.01141424161125182551, 0.01180783614957085781, 0.01220143068788988663, 0.01259502522620891893 ),
 .UNSPECIFIED. ) ;
#36 = CARTESIAN_POINT ( 'NONE',  ( 7.089491420560611878, 1.220834293754859301, 5.875513733641011704 ) ) ;
#37 = CARTESIAN_POINT ( 'NONE',  ( 6.147937164283445277, -1.896625475588840537, -5.692590370035004455 ) ) ;
#38 = PRODUCT_DEFINITION ( 'UNKNOWN', '', #121, #292 ) ;
#39 = CARTESIAN_POINT ( 'NONE',  ( 7.500000000000009770, -0.1331554747843287090, -6.000000000000003553 ) ) ;
#40 = CARTESIAN_POINT ( 'NONE',  ( 5.369888794154905831, 2.000091161925000804, -5.656822018893532977 ) ) ;
#41 = DIRECTION ( 'NONE',  ( 0.000000000000000000, 0.000000000000000000, 1.000000000000000000 ) ) ;
#42 = DIRECTION ( 'NONE',  ( 0.000000000000000000, 0.000000000000000000, 1.000000000000000000 ) ) ;
#43 = SURFACE_SIDE_STYLE ('',( #167 ) ) ;
#44 = DIRECTION ( 'NONE',  ( 0.000000000000000000, 0.000000000000000000, 1.000000000000000000 ) ) ;
#45 = CARTESIAN_POINT ( 'NONE',  ( 3.565204938273411006, -0.5234513961886764211, 5.978530582059971898 ) ) ;
#46 = DIRECTION ( 'NONE',  ( 1.000000000000000000, 0.000000000000000000, 0.000000000000000000 ) ) ;
#47 = ADVANCED_FACE ( 'NONE', ( #30, #303 ), #126, .F. ) ;
#48 = CARTESIAN_POINT ( 'NONE',  ( 38.00000000000000711, 0.000000000000000000, 0.000000000000000000 ) ) ;
#49 = CARTESIAN_POINT ( 'NONE',  ( 7.005285961887270929, -1.323204598855622249, 5.853032951955676744 ) ) ;
#50 = CARTESIAN_POINT ( 'NONE',  ( 35.00000000000000000, 0.000000000000000000, 0.000000000000000000 ) ) ;
#51 = ORIENTED_EDGE ( 'NONE', *, *, #153, .F. ) ;
#52 = EDGE_LOOP ( 'NONE', ( #57 ) ) ;
#53 = CARTESIAN_POINT ( 'NONE',  ( -1.841572700620160951E-16, 0.000000000000000000, 4.500000000000005329 ) ) ;
#54 = CARTESIAN_POINT ( 'NONE',  ( 6.020644071227415850, 1.935535540705378921, 5.679299863499476686 ) ) ;
#55 = ORIENTED_EDGE ( 'NONE', *, *, #119, .F. ) ;
#56 = CARTESIAN_POINT ( 'NONE',  ( 3.911036666986108301, 1.221516105302874911, 5.875370637095268300 ) ) ;
#57 = ORIENTED_EDGE ( 'NONE', *, *, #318, .F. ) ;
#58 = VERTEX_POINT ( 'NONE', #53 ) ;
#59 = CARTESIAN_POINT ( 'NONE',  ( 4.852958642862336802, 1.897014113617890629, 5.692465502448547099 ) ) ;
#60 = PRESENTATION_STYLE_ASSIGNMENT (( #282 ) ) ;
#61 = CARTESIAN_POINT ( 'NONE',  ( 38.00000000000000711, 0.000000000000000000, 0.000000000000000000 ) ) ;
#62 = CARTESIAN_POINT ( 'NONE',  ( 4.978963561364603940, 1.935390990121356847, -5.679348875832658905 ) ) ;
#63 = EDGE_CURVE ( 'NONE', #124, #124, #22, .T. ) ;
#64 = CARTESIAN_POINT ( 'NONE',  ( 3.703735421006609574, 0.8890685857546740678, -5.935005968993722014 ) ) ;
#65 = CARTESIAN_POINT ( 'NONE',  ( 5.368025973940299345, -1.999989150514403624, -5.656858085364785182 ) ) ;
#66 = SURFACE_STYLE_FILL_AREA ( #141 ) ;
#67 = DIRECTION ( 'NONE',  ( -1.000000000000000000, -0.000000000000000000, -0.000000000000000000 ) ) ;
#68 = PLANE ( 'NONE',  #200 ) ;
#69 = FACE_BOUND ( 'NONE', #306, .T. ) ;
#70 =( GEOMETRIC_REPRESENTATION_CONTEXT ( 3 ) GLOBAL_UNCERTAINTY_ASSIGNED_CONTEXT ( ( #215 ) ) GLOBAL_UNIT_ASSIGNED_CONTEXT ( ( #86, #191, #147 ) ) REPRESENTATION_CONTEXT ( 'NONE', 'WORKASPACE' ) );
#71 = CARTESIAN_POINT ( 'NONE',  ( -1.841572700620160951E-16, 0.000000000000000000, 0.000000000000000000 ) ) ;
#72 = FACE_OUTER_BOUND ( 'NONE', #247, .T. ) ;
#73 = EDGE_CURVE ( 'NONE', #278, #278, #35, .T. ) ;
#74 = CARTESIAN_POINT ( 'NONE',  ( 3.499895010714262789, 0.2615395899050729778, 6.000034996426078848 ) ) ;
#75 = FACE_OUTER_BOUND ( 'NONE', #24, .T. ) ;
#76 = CARTESIAN_POINT ( 'NONE',  ( 7.234225729261710924, 1.004722823144662991, -5.916307102267759355 ) ) ;
#77 = EDGE_LOOP ( 'NONE', ( #128 ) ) ;
#78 = AXIS2_PLACEMENT_3D ( 'NONE', #61, #162, #42 ) ;
#79 = ORIENTED_EDGE ( 'NONE', *, *, #119, .T. ) ;
#80 = PRODUCT_CONTEXT ( 'NONE', #302, 'mechanical' ) ;
#81 = CARTESIAN_POINT ( 'NONE',  ( 4.488404242454719473, 1.745271979882817126, 5.741544207925434407 ) ) ;
#82 = ORIENTED_EDGE ( 'NONE', *, *, #234, .F. ) ;
#83 = AXIS2_PLACEMENT_3D ( 'NONE', #48, #123, #297 ) ;
#84 = CARTESIAN_POINT ( 'NONE',  ( 4.488404242454719473, -1.745271979882817126, -5.741544207925434407 ) ) ;
#85 = DIRECTION ( 'NONE',  ( 0.000000000000000000, 0.000000000000000000, 1.000000000000000000 ) ) ;
#86 =( LENGTH_UNIT ( ) NAMED_UNIT ( * ) SI_UNIT ( .MILLI., .METRE. ) );
#87 = CARTESIAN_POINT ( 'NONE',  ( 4.977888273212714765, 1.935080626499934509, 5.679454788893231409 ) ) ;
#88 = CARTESIAN_POINT ( 'NONE',  ( 3.766590847567969025, 1.006084829641461287, -5.916069256194004922 ) ) ;
#89 = DIRECTION ( 'NONE',  ( 1.000000000000000000, 0.000000000000000000, 0.000000000000000000 ) ) ;
#90 = CARTESIAN_POINT ( 'NONE',  ( 6.730440375147365373, -1.597885448045709200, -5.786391917076067593 ) ) ;
#91 = CARTESIAN_POINT ( 'NONE',  ( 5.763299380756327750, -1.986972716985101917, 5.661509474216045668 ) ) ;
#92 = UNCERTAINTY_MEASURE_WITH_UNIT (LENGTH_MEASURE( 1.000000000000000082E-05 ), #113, 'distance_accuracy_value', 'NONE');
#93 = CARTESIAN_POINT ( 'NONE',  ( 3.993647623109752409, -1.322060469484170886, 5.853300469267279205 ) ) ;
#94 = CONICAL_SURFACE ( 'NONE', #114, 6.000000000000000000, 0.7853981633974465026 ) ;
#95 = CARTESIAN_POINT ( 'NONE',  ( 6.148890556403808105, -1.896277138988046174, 5.692705594307804873 ) ) ;
#96 = ADVANCED_FACE ( 'NONE', ( #34, #236 ), #17, .T. ) ;
#97 = CARTESIAN_POINT ( 'NONE',  ( 3.603486032481512780, -0.6482624151756810615, 5.966112188287907792 ) ) ;
#98 = CARTESIAN_POINT ( 'NONE',  ( 5.632898858583441637, -1.999907866698910075, 5.656886823524491348 ) ) ;
#99 = CARTESIAN_POINT ( 'NONE',  ( 5.368025973940299345, 1.999989150514403624, 5.656858085364785182 ) ) ;
#100 = CARTESIAN_POINT ( 'NONE',  ( 5.763299380756327750, 1.986972716985101917, -5.661509474216045668 ) ) ;
#101 = EDGE_LOOP ( 'NONE', ( #79 ) ) ;
#102 = AXIS2_PLACEMENT_3D ( 'NONE', #171, #67, #44 ) ;
#103 = ORIENTED_EDGE ( 'NONE', *, *, #7, .T. ) ;
#104 = ADVANCED_FACE ( 'NONE', ( #210 ), #68, .F. ) ;
#105 = DIRECTION ( 'NONE',  ( 1.000000000000000000, 0.000000000000000000, 0.000000000000000000 ) ) ;
#106 = CARTESIAN_POINT ( 'NONE',  ( 5.236292779252639029, 1.986875878547647689, -5.661542738627884042 ) ) ;
#107 = DIRECTION ( 'NONE',  ( 0.000000000000000000, 0.000000000000000000, 1.000000000000000000 ) ) ;
#108 = CARTESIAN_POINT ( 'NONE',  ( 7.295696557186566622, -0.8902990621872464150, -5.934832031573172628 ) ) ;
#109 = CARTESIAN_POINT ( 'NONE',  ( 4.270303529868326287, 1.598774514288298532, 5.786194921595080309 ) ) ;
#110 = CARTESIAN_POINT ( 'NONE',  ( 7.486826752465751689, -0.2639758135586129928, -5.995572583537809308 ) ) ;
#111 = CARTESIAN_POINT ( 'NONE',  ( 6.509186423930064080, -1.746306335040984870, -5.741211322261797534 ) ) ;
#112 = CARTESIAN_POINT ( 'NONE',  ( 7.435413015933839631, -0.5209032848921311132, -5.978731772073636819 ) ) ;
#113 =( LENGTH_UNIT ( ) NAMED_UNIT ( * ) SI_UNIT ( .MILLI., .METRE. ) );
#114 = AXIS2_PLACEMENT_3D ( 'NONE', #219, #3, #118 ) ;
#115 = DIRECTION ( 'NONE',  ( 0.000000000000000000, 0.000000000000000000, 1.000000000000000000 ) ) ;
#116 = SURFACE_SIDE_STYLE ('',( #66 ) ) ;
#117 = MANIFOLD_SOLID_BREP ( 'Cut-Extrude1', #261 ) ;
#118 = DIRECTION ( 'NONE',  ( 0.000000000000000000, 0.000000000000000000, -1.000000000000000000 ) ) ;
#119 = EDGE_CURVE ( 'NONE', #274, #274, #4, .T. ) ;
#120 = CARTESIAN_POINT ( 'NONE',  ( 5.500000000000006217, -2.407412430484044816E-32, -8.500000000000003553 ) ) ;
#121 = PRODUCT_DEFINITION_FORMATION_WITH_SPECIFIED_SOURCE ( 'ANY', '', #27, .NOT_KNOWN. ) ;
#122 = ADVANCED_BREP_SHAPE_REPRESENTATION ( '76.04.03.0006', ( #117, #298 ), #262 ) ;
#123 = DIRECTION ( 'NONE',  ( -1.000000000000000000, 0.000000000000000000, -0.000000000000000000 ) ) ;
#124 = VERTEX_POINT ( 'NONE', #202 ) ;
#125 = AXIS2_PLACEMENT_3D ( 'NONE', #134, #230, #107 ) ;
#126 = PLANE ( 'NONE',  #301 ) ;
#127 = VERTEX_POINT ( 'NONE', #248 ) ;
#128 = ORIENTED_EDGE ( 'NONE', *, *, #268, .T. ) ;
#129 = ADVANCED_FACE ( 'NONE', ( #75 ), #245, .F. ) ;
#130 = EDGE_LOOP ( 'NONE', ( #277 ) ) ;
#131 = FACE_BOUND ( 'NONE', #177, .T. ) ;
#132 = CARTESIAN_POINT ( 'NONE',  ( 6.021889177444241348, 1.935205112750687961, -5.679412934121341294 ) ) ;
#133 = ORIENTED_EDGE ( 'NONE', *, *, #7, .F. ) ;
#134 = CARTESIAN_POINT ( 'NONE',  ( 0.000000000000000000, 0.000000000000000000, 0.000000000000000000 ) ) ;
#135 = DIRECTION ( 'NONE',  ( -1.000000000000000000, -0.000000000000000000, -0.000000000000000000 ) ) ;
#136 = SURFACE_STYLE_USAGE ( .BOTH. , #116 ) ;
#137 = AXIS2_PLACEMENT_3D ( 'NONE', #120, #172, #46 ) ;
#138 = CARTESIAN_POINT ( 'NONE',  ( 4.495143702082088133, 1.734099221172235916, -5.744435912051455873 ) ) ;
#139 = CARTESIAN_POINT ( 'NONE',  ( 7.500000000000008882, -5.421010862427522170E-17, -6.000000000000002665 ) ) ;
#140 = CARTESIAN_POINT ( 'NONE',  ( 3.513182583331854403, 0.2645559447028005828, -5.995568316425109678 ) ) ;
#141 = FILL_AREA_STYLE ('',( #316 ) ) ;
#142 = VERTEX_POINT ( 'NONE', #223 ) ;
#143 = CARTESIAN_POINT ( 'NONE',  ( 3.552885797923471589, 0.5263928004518690917, 5.981818434031924703 ) ) ;
#144 = CARTESIAN_POINT ( 'NONE',  ( 7.234225729261710924, -1.004722823144662991, 5.916307102267759355 ) ) ;
#145 = AXIS2_PLACEMENT_3D ( 'NONE', #165, #135, #18 ) ;
#146 =( GEOMETRIC_REPRESENTATION_CONTEXT ( 3 ) GLOBAL_UNCERTAINTY_ASSIGNED_CONTEXT ( ( #92 ) ) GLOBAL_UNIT_ASSIGNED_CONTEXT ( ( #113, #207, #212 ) ) REPRESENTATION_CONTEXT ( 'NONE', 'WORKASPACE' ) );
#147 =( NAMED_UNIT ( * ) SI_UNIT ( $, .STERADIAN. ) SOLID_ANGLE_UNIT ( ) );
#148 = CARTESIAN_POINT ( 'NONE',  ( 4.978963561364603940, -1.935390990121356847, 5.679348875832658905 ) ) ;
#149 = DIRECTION ( 'NONE',  ( 0.000000000000000000, 0.000000000000000000, -1.000000000000000000 ) ) ;
#150 = AXIS2_PLACEMENT_3D ( 'NONE', #11, #32, #246 ) ;
#151 = AXIS2_PLACEMENT_3D ( 'NONE', #71, #23, #20 ) ;
#152 = EDGE_LOOP ( 'NONE', ( #154 ) ) ;
#153 = EDGE_CURVE ( 'NONE', #58, #58, #218, .T. ) ;
#154 = ORIENTED_EDGE ( 'NONE', *, *, #153, .T. ) ;
#155 = CARTESIAN_POINT ( 'NONE',  ( 7.396479301864746780, 0.6484788379136059433, 5.966099132590461984 ) ) ;
#156 = CARTESIAN_POINT ( 'NONE',  ( 7.435431273475680669, 0.5208358549357979816, -5.978737698794990507 ) ) ;
#157 = CARTESIAN_POINT ( 'NONE',  ( 7.005514622960268056, 1.322962990986547016, 5.853089889558318326 ) ) ;
#158 = COLOUR_RGB ( '',0.7764705882352941346, 0.7568627450980391913, 0.7372549019607843590 ) ;
#159 = DIRECTION ( 'NONE',  ( 0.000000000000000000, 0.000000000000000000, 1.000000000000000000 ) ) ;
#160 = CARTESIAN_POINT ( 'NONE',  ( 5.234585679963925209, 1.986628532218333909, 5.661629695159657416 ) ) ;
#161 = CARTESIAN_POINT ( 'NONE',  ( 4.977888273212714765, -1.935080626499934509, -5.679454788893231409 ) ) ;
#162 = DIRECTION ( 'NONE',  ( -1.000000000000000000, -0.000000000000000000, -0.000000000000000000 ) ) ;
#163 = CARTESIAN_POINT ( 'NONE',  ( 5.762164732749054608, -1.987117945956035747, -5.661458031085127907 ) ) ;
#164 = CARTESIAN_POINT ( 'NONE',  ( 3.500052735620204469, 0.1319722357661348433, -5.999982421461185211 ) ) ;
#165 = CARTESIAN_POINT ( 'NONE',  ( 0.000000000000000000, 0.000000000000000000, 0.000000000000000000 ) ) ;
#166 = CARTESIAN_POINT ( 'NONE',  ( 0.000000000000000000, 0.000000000000000000, 0.000000000000000000 ) ) ;
#167 = SURFACE_STYLE_FILL_AREA ( #239 ) ;
#168 = SHAPE_DEFINITION_REPRESENTATION ( #221, #122 ) ;
#169 = AXIS2_PLACEMENT_3D ( 'NONE', #50, #270, #159 ) ;
#170 = CARTESIAN_POINT ( 'NONE',  ( 5.369888794154905831, -2.000091161925000804, 5.656822018893532977 ) ) ;
#171 = CARTESIAN_POINT ( 'NONE',  ( 36.50000000000000711, 0.000000000000000000, 0.000000000000000000 ) ) ;
#172 = DIRECTION ( 'NONE',  ( -0.000000000000000000, -0.000000000000000000, 1.000000000000000000 ) ) ;
#173 = CARTESIAN_POINT ( 'NONE',  ( 5.236292779252639029, -1.986875878547647689, 5.661542738627884042 ) ) ;
#174 = CARTESIAN_POINT ( 'NONE',  ( 7.486836486607476360, -0.2639033490118382064, 5.995575825653401303 ) ) ;
#175 = CARTESIAN_POINT ( 'NONE',  ( 3.766590847567969025, -1.006084829641461287, 5.916069256194004922 ) ) ;
#176 = EDGE_LOOP ( 'NONE', ( #225 ) ) ;
#177 = EDGE_LOOP ( 'NONE', ( #28 ) ) ;
#178 = CARTESIAN_POINT ( 'NONE',  ( 35.00000000000000000, 0.000000000000000000, 6.000000000000001776 ) ) ;
#179 = ORIENTED_EDGE ( 'NONE', *, *, #73, .F. ) ;
#180 = CARTESIAN_POINT ( 'NONE',  ( 6.730594376309759319, 1.597705364247402171, -5.786432247724127009 ) ) ;
#181 = CARTESIAN_POINT ( 'NONE',  ( 6.509186423930064080, 1.746306335040984870, 5.741211322261797534 ) ) ;
#182 = CARTESIAN_POINT ( 'NONE',  ( 5.234585679963925209, -1.986628532218333909, -5.661629695159657416 ) ) ;
#183 = FACE_OUTER_BOUND ( 'NONE', #52, .T. ) ;
#184 = CARTESIAN_POINT ( 'NONE',  ( 5.631644983969305684, -2.000010835952009458, -5.656850418404820502 ) ) ;
#185 = CARTESIAN_POINT ( 'NONE',  ( 7.234231897006853096, 1.004668640024029225, 5.916311260470016542 ) ) ;
#186 = CARTESIAN_POINT ( 'NONE',  ( 6.020644071227415850, -1.935535540705378921, -5.679299863499476686 ) ) ;
#187 = CARTESIAN_POINT ( 'NONE',  ( 3.603486032481512780, 0.6482624151756810615, -5.966112188287907792 ) ) ;
#188 = CARTESIAN_POINT ( 'NONE',  ( 7.234231897006853096, -1.004668640024029225, -5.916311260470016542 ) ) ;
#189 = CARTESIAN_POINT ( 'NONE',  ( 6.021889177444241348, -1.935205112750687961, 5.679412934121341294 ) ) ;
#190 = PRESENTATION_LAYER_ASSIGNMENT (  '', '', ( #14 ) ) ;
#191 =( NAMED_UNIT ( * ) PLANE_ANGLE_UNIT ( ) SI_UNIT ( $, .RADIAN. ) );
#192 = CARTESIAN_POINT ( 'NONE',  ( 4.853806021728090059, -1.897312994660367291, 5.692365997572657932 ) ) ;
#193 = CARTESIAN_POINT ( 'NONE',  ( 3.500052735620204469, -0.1319722357661348433, 5.999982421461185211 ) ) ;
#194 = CARTESIAN_POINT ( 'NONE',  ( 4.610463951849481212, -1.796131642253072203, 5.725097237054209032 ) ) ;
#195 = ORIENTED_EDGE ( 'NONE', *, *, #63, .F. ) ;
#196 = ADVANCED_FACE ( 'NONE', ( #69, #213 ), #94, .T. ) ;
#197 = CARTESIAN_POINT ( 'NONE',  ( 5.632898858583441637, 1.999907866698910075, -5.656886823524491348 ) ) ;
#198 = CARTESIAN_POINT ( 'NONE',  ( 7.089069900028459159, 1.221418717805088816, -5.875397347880998211 ) ) ;
#199 = APPLICATION_PROTOCOL_DEFINITION ( 'draft international standard', 'automotive_design', 1998, #302 ) ;
#200 = AXIS2_PLACEMENT_3D ( 'NONE', #317, #89, #264 ) ;
#201 = CARTESIAN_POINT ( 'NONE',  ( 7.005285961887270929, 1.323204598855622249, -5.853032951955676744 ) ) ;
#202 = CARTESIAN_POINT ( 'NONE',  ( 1.499999999999999556, 0.000000000000000000, 6.000000000000000000 ) ) ;
#203 = CARTESIAN_POINT ( 'NONE',  ( 3.993647623109752409, 1.322060469484170886, -5.853300469267279205 ) ) ;
#204 = CYLINDRICAL_SURFACE ( 'NONE', #125, 6.000000000000000888 ) ;
#205 = MECHANICAL_DESIGN_GEOMETRIC_PRESENTATION_REPRESENTATION (  '', ( #14 ), #70 ) ;
#206 = CARTESIAN_POINT ( 'NONE',  ( 4.852958642862336802, -1.897014113617890629, -5.692465502448547099 ) ) ;
#207 =( NAMED_UNIT ( * ) PLANE_ANGLE_UNIT ( ) SI_UNIT ( $, .RADIAN. ) );
#208 = ADVANCED_FACE ( 'NONE', ( #21, #72 ), #293, .F. ) ;
#209 = CARTESIAN_POINT ( 'NONE',  ( 4.853806021728090059, 1.897312994660367291, -5.692365997572657932 ) ) ;
#210 = FACE_OUTER_BOUND ( 'NONE', #152, .T. ) ;
#211 = CARTESIAN_POINT ( 'NONE',  ( 35.00000000000000000, 0.000000000000000000, 0.000000000000000000 ) ) ;
#212 =( NAMED_UNIT ( * ) SI_UNIT ( $, .STERADIAN. ) SOLID_ANGLE_UNIT ( ) );
#213 = FACE_OUTER_BOUND ( 'NONE', #130, .T. ) ;
#214 = PRESENTATION_STYLE_ASSIGNMENT (( #136 ) ) ;
#215 = UNCERTAINTY_MEASURE_WITH_UNIT (LENGTH_MEASURE( 1.000000000000000082E-05 ), #86, 'distance_accuracy_value', 'NONE');
#216 = CARTESIAN_POINT ( 'NONE',  ( 3.513182583331854403, -0.2645559447028005828, 5.995568316425109678 ) ) ;
#217 = CARTESIAN_POINT ( 'NONE',  ( 7.396509808497585325, -0.6483877744006693034, 5.966108905935596951 ) ) ;
#218 = CIRCLE ( 'NONE', #151, 4.500000000000005329 ) ;
#219 = CARTESIAN_POINT ( 'NONE',  ( 1.499999999999999556, 0.000000000000000000, 0.000000000000000000 ) ) ;
#220 = CARTESIAN_POINT ( 'NONE',  ( 6.509186397556166348, -1.746209203716011515, 5.741237610664247981 ) ) ;
#221 = PRODUCT_DEFINITION_SHAPE ( 'NONE', 'NONE',  #38 ) ;
#222 = CARTESIAN_POINT ( 'NONE',  ( 6.509186397556166348, 1.746209203716011515, -5.741237610664247981 ) ) ;
#223 = CARTESIAN_POINT ( 'NONE',  ( 35.00000000000000000, 0.000000000000000000, 8.500000000000003553 ) ) ;
#224 =( NAMED_UNIT ( * ) PLANE_ANGLE_UNIT ( ) SI_UNIT ( $, .RADIAN. ) );
#225 = ORIENTED_EDGE ( 'NONE', *, *, #318, .T. ) ;
#226 = FACE_OUTER_BOUND ( 'NONE', #8, .T. ) ;
#227 = EDGE_LOOP ( 'NONE', ( #103 ) ) ;
#228 = CARTESIAN_POINT ( 'NONE',  ( 6.147937164283445277, 1.896625475588840537, 5.692590370035004455 ) ) ;
#229 = CARTESIAN_POINT ( 'NONE',  ( 7.396509808497585325, 0.6483877744006693034, -5.966108905935596951 ) ) ;
#230 = DIRECTION ( 'NONE',  ( -1.000000000000000000, -0.000000000000000000, -0.000000000000000000 ) ) ;
#231 = CARTESIAN_POINT ( 'NONE',  ( 3.911036666986108301, -1.221516105302874911, -5.875370637095268300 ) ) ;
#232 = CARTESIAN_POINT ( 'NONE',  ( 3.766254548163098015, 1.005501256792735276, 5.916168434159371436 ) ) ;
#233 = MECHANICAL_DESIGN_GEOMETRIC_PRESENTATION_REPRESENTATION (  '', ( #304 ), #146 ) ;
#234 = EDGE_CURVE ( 'NONE', #127, #127, #249, .T. ) ;
#235 = CARTESIAN_POINT ( 'NONE',  ( 3.911482682720856197, 1.222099303196796605, -5.875249392293443229 ) ) ;
#236 = FACE_OUTER_BOUND ( 'NONE', #176, .T. ) ;
#237 = CARTESIAN_POINT ( 'NONE',  ( 4.270303529868326287, -1.598774514288298532, -5.786194921595080309 ) ) ;
#238 = DIRECTION ( 'NONE',  ( 1.000000000000000000, 0.000000000000000000, 0.000000000000000000 ) ) ;
#239 = FILL_AREA_STYLE ('',( #265 ) ) ;
#240 = CARTESIAN_POINT ( 'NONE',  ( 7.500000000000008882, 5.421010862427522170E-17, 6.000000000000002665 ) ) ;
#241 = ADVANCED_FACE ( 'NONE', ( #15, #131, #226, #33 ), #204, .T. ) ;
#242 = CARTESIAN_POINT ( 'NONE',  ( 4.495143702082088133, -1.734099221172235916, 5.744435912051455873 ) ) ;
#243 = CIRCLE ( 'NONE', #272, 7.000000000000006217 ) ;
#244 = APPLICATION_CONTEXT ( 'automotive_design' ) ;
#245 = PLANE ( 'NONE',  #83 ) ;
#246 = DIRECTION ( 'NONE',  ( 0.000000000000000000, 0.000000000000000000, 1.000000000000000000 ) ) ;
#247 = EDGE_LOOP ( 'NONE', ( #82 ) ) ;
#248 = CARTESIAN_POINT ( 'NONE',  ( 7.500000000000007105, 0.000000000000000000, 6.000000000000000888 ) ) ;
#249 = B_SPLINE_CURVE_WITH_KNOTS ( 'NONE', 3,
 ( #240, #19, #174, #267, #217, #321, #144, #1, #49, #296, #220, #95, #189, #91, #98, #170, #173, #148, #192, #194, #242, #266, #2, #93, #294, #175, #289, #97, #45, #216, #193, #74, #143, #269, #232, #56, #305, #109, #81, #59, #87, #160, #99, #314, #276, #54, #228, #181, #279, #157, #36, #185, #255, #155, #29, #310, #252, #12 ),
 .UNSPECIFIED., .T., .F.,
 ( 4, 2, 2, 2, 2, 2, 2, 2, 2, 2, 2, 2, 2, 2, 2, 2, 2, 2, 2, 2, 2, 2, 2, 2, 2, 2, 2, 2, 4 ),
 ( 0.000000000000000000, 0.0003935945383190280118, 0.0007871890766380560235, 0.001180783614957084090, 0.001574378153276112047, 0.002361567229914170781, 0.002755161768233198739, 0.003148756306552227130, 0.003542350844871255088, 0.003935945383190283045, 0.004329539921509311003, 0.004723134459828338960, 0.005116728998147366918, 0.005510323536466394875, 0.005903918074785422833, 0.006297512613104450790, 0.007084701689742506706, 0.007478296228061534663, 0.007871890766380562621, 0.008659079843018618536, 0.009052674381337647361, 0.009446268919656677920, 0.009839863457975706745, 0.01023345799629473730, 0.01102064707293279495, 0.01141424161125182551, 0.01180783614957085781, 0.01220143068788988663, 0.01259502522620891893 ),
 .UNSPECIFIED. ) ;
#250 = ORIENTED_EDGE ( 'NONE', *, *, #234, .T. ) ;
#251 = APPLICATION_PROTOCOL_DEFINITION ( 'draft international standard', 'automotive_design', 1998, #244 ) ;
#252 = CARTESIAN_POINT ( 'NONE',  ( 7.500000000000009770, 0.1331554747843287090, 6.000000000000003553 ) ) ;
#253 = CARTESIAN_POINT ( 'NONE',  ( 6.148890556403808105, 1.896277138988046174, -5.692705594307804873 ) ) ;
#254 = AXIS2_PLACEMENT_3D ( 'NONE', #211, #322, #115 ) ;
#255 = CARTESIAN_POINT ( 'NONE',  ( 7.295696557186566622, 0.8902990621872464150, 5.934832031573172628 ) ) ;
#256 = EDGE_LOOP ( 'NONE', ( #250 ) ) ;
#257 = CARTESIAN_POINT ( 'NONE',  ( 36.50000000000000711, 0.000000000000000000, 8.500000000000001776 ) ) ;
#258 = CARTESIAN_POINT ( 'NONE',  ( 3.565204938273411006, 0.5234513961886764211, -5.978530582059971898 ) ) ;
#259 = CARTESIAN_POINT ( 'NONE',  ( 38.00000000000000711, 0.000000000000000000, 0.000000000000000000 ) ) ;
#260 = CARTESIAN_POINT ( 'NONE',  ( 4.610463951849481212, 1.796131642253072203, -5.725097237054209032 ) ) ;
#261 = CLOSED_SHELL ( 'NONE', ( #129, #275, #96, #47, #241, #196, #104, #208 ) ) ;
#262 =( GEOMETRIC_REPRESENTATION_CONTEXT ( 3 ) GLOBAL_UNCERTAINTY_ASSIGNED_CONTEXT ( ( #295 ) ) GLOBAL_UNIT_ASSIGNED_CONTEXT ( ( #283, #224, #307 ) ) REPRESENTATION_CONTEXT ( 'NONE', 'WORKASPACE' ) );
#263 = CARTESIAN_POINT ( 'NONE',  ( 3.552885797923471589, -0.5263928004518690917, -5.981818434031924703 ) ) ;
#264 = DIRECTION ( 'NONE',  ( 0.000000000000000000, 0.000000000000000000, -1.000000000000000000 ) ) ;
#265 = FILL_AREA_STYLE_COLOUR ( '', #158 ) ;
#266 = CARTESIAN_POINT ( 'NONE',  ( 4.279502809926702511, -1.589724157631955626, 5.786054023181769423 ) ) ;
#267 = CARTESIAN_POINT ( 'NONE',  ( 7.435431273475680669, -0.5208358549357979816, 5.978737698794990507 ) ) ;
#268 = EDGE_CURVE ( 'NONE', #312, #312, #243, .T. ) ;
#269 = CARTESIAN_POINT ( 'NONE',  ( 3.703424879200846842, 0.8884838824646796862, 5.935099550986777217 ) ) ;
#270 = DIRECTION ( 'NONE',  ( -1.000000000000000000, -0.000000000000000000, -0.000000000000000000 ) ) ;
#271 = CARTESIAN_POINT ( 'NONE',  ( 7.500000000000008882, -5.421010862427522170E-17, -6.000000000000002665 ) ) ;
#272 = AXIS2_PLACEMENT_3D ( 'NONE', #259, #313, #85 ) ;
#273 = CARTESIAN_POINT ( 'NONE',  ( 35.00000000000000000, 8.500000000000003553, 0.000000000000000000 ) ) ;
#274 = VERTEX_POINT ( 'NONE', #178 ) ;
#275 = ADVANCED_FACE ( 'NONE', ( #183, #284 ), #319, .T. ) ;
#276 = CARTESIAN_POINT ( 'NONE',  ( 5.762164732749054608, 1.987117945956035747, 5.661458031085127907 ) ) ;
#277 = ORIENTED_EDGE ( 'NONE', *, *, #63, .T. ) ;
#278 = VERTEX_POINT ( 'NONE', #25 ) ;
#279 = CARTESIAN_POINT ( 'NONE',  ( 6.730440375147365373, 1.597885448045709200, 5.786391917076067593 ) ) ;
#280 = ORIENTED_EDGE ( 'NONE', *, *, #268, .F. ) ;
#281 = PRESENTATION_LAYER_ASSIGNMENT (  '', '', ( #304 ) ) ;
#282 = SURFACE_STYLE_USAGE ( .BOTH. , #43 ) ;
#283 =( LENGTH_UNIT ( ) NAMED_UNIT ( * ) SI_UNIT ( .MILLI., .METRE. ) );
#284 = FACE_BOUND ( 'NONE', #77, .T. ) ;
#285 = CARTESIAN_POINT ( 'NONE',  ( 3.993275932419206420, -1.321681097398636373, -5.853391493940652168 ) ) ;
#286 = CARTESIAN_POINT ( 'NONE',  ( 3.766254548163098015, -1.005501256792735276, -5.916168434159371436 ) ) ;
#287 = CARTESIAN_POINT ( 'NONE',  ( 3.499895010714262789, -0.2615395899050729778, -6.000034996426078848 ) ) ;
#288 = CARTESIAN_POINT ( 'NONE',  ( 4.279502809926702511, 1.589724157631955626, -5.786054023181769423 ) ) ;
#289 = CARTESIAN_POINT ( 'NONE',  ( 3.703735421006609574, -0.8890685857546740678, 5.935005968993722014 ) ) ;
#290 = CIRCLE ( 'NONE', #169, 8.500000000000003553 ) ;
#291 = CIRCLE ( 'NONE', #102, 8.500000000000001776 ) ;
#292 = PRODUCT_DEFINITION_CONTEXT ( 'detailed design', #244, 'design' ) ;
#293 = CYLINDRICAL_SURFACE ( 'NONE', #137, 2.000000000000000000 ) ;
#294 = CARTESIAN_POINT ( 'NONE',  ( 3.911482682720856197, -1.222099303196796605, 5.875249392293443229 ) ) ;
#295 = UNCERTAINTY_MEASURE_WITH_UNIT (LENGTH_MEASURE( 1.000000000000000082E-05 ), #283, 'distance_accuracy_value', 'NONE');
#296 = CARTESIAN_POINT ( 'NONE',  ( 6.730594376309759319, -1.597705364247402171, 5.786432247724127009 ) ) ;
#297 = DIRECTION ( 'NONE',  ( -0.000000000000000000, 0.000000000000000000, 1.000000000000000000 ) ) ;
#298 = AXIS2_PLACEMENT_3D ( 'NONE', #166, #41, #238 ) ;
#299 = CARTESIAN_POINT ( 'NONE',  ( 7.295746753613325808, 0.8901964707900200668, -5.934847296002590866 ) ) ;
#300 = EDGE_LOOP ( 'NONE', ( #179 ) ) ;
#301 = AXIS2_PLACEMENT_3D ( 'NONE', #273, #105, #149 ) ;
#302 = APPLICATION_CONTEXT ( 'automotive_design' ) ;
#303 = FACE_OUTER_BOUND ( 'NONE', #227, .T. ) ;
#304 = STYLED_ITEM ( 'NONE', ( #214 ), #122 ) ;
#305 = CARTESIAN_POINT ( 'NONE',  ( 3.993275932419206420, 1.321681097398636373, 5.853391493940652168 ) ) ;
#306 = EDGE_LOOP ( 'NONE', ( #51 ) ) ;
#307 =( NAMED_UNIT ( * ) SI_UNIT ( $, .STERADIAN. ) SOLID_ANGLE_UNIT ( ) );
#308 = EDGE_LOOP ( 'NONE', ( #55 ) ) ;
#309 = CARTESIAN_POINT ( 'NONE',  ( 38.00000000000000711, 0.000000000000000000, 7.000000000000006217 ) ) ;
#310 = CARTESIAN_POINT ( 'NONE',  ( 7.486826752465751689, 0.2639758135586129928, 5.995572583537809308 ) ) ;
#311 = CARTESIAN_POINT ( 'NONE',  ( 7.396479301864746780, -0.6484788379136059433, -5.966099132590461984 ) ) ;
#312 = VERTEX_POINT ( 'NONE', #309 ) ;
#313 = DIRECTION ( 'NONE',  ( -1.000000000000000000, -0.000000000000000000, -0.000000000000000000 ) ) ;
#314 = CARTESIAN_POINT ( 'NONE',  ( 5.631644983969305684, 2.000010835952009458, 5.656850418404820502 ) ) ;
#315 = CARTESIAN_POINT ( 'NONE',  ( 4.177705992343601515, 1.506147378463205566, -5.808656500676011802 ) ) ;
#316 = FILL_AREA_STYLE_COLOUR ( '', #31 ) ;
#317 = CARTESIAN_POINT ( 'NONE',  ( -9.207863503100804757E-17, 4.500000000000005329, 0.000000000000000000 ) ) ;
#318 = EDGE_CURVE ( 'NONE', #6, #6, #291, .T. ) ;
#319 = CONICAL_SURFACE ( 'NONE', #78, 7.000000000000006217, 0.7853981633974466137 ) ;
#320 = CARTESIAN_POINT ( 'NONE',  ( 3.703424879200846842, -0.8884838824646796862, -5.935099550986777217 ) ) ;
#321 = CARTESIAN_POINT ( 'NONE',  ( 7.295746753613325808, -0.8901964707900200668, 5.934847296002590866 ) ) ;
#322 = DIRECTION ( 'NONE',  ( -1.000000000000000000, -0.000000000000000000, -0.000000000000000000 ) ) ;
ENDSEC;
END-ISO-10303-21;
