ISO-10303-21;
HEADER;
FILE_DESCRIPTION (( 'STEP AP214' ),
    '1' );
FILE_NAME ('76.04.03.0004.step',
    '2021-04-02T18:00:19',
    ( '' ),
    ( '' ),
    'SwSTEP 2.0',
    'SolidWorks 2021',
    '' );
FILE_SCHEMA (( 'AUTOMOTIVE_DESIGN' ));
ENDSEC;

DATA;
#1 = CIRCLE ( 'NONE', #5, 6.000000000000001776 ) ;
#2 = DIRECTION ( 'NONE',  ( -1.000000000000000000, -0.000000000000000000, -0.000000000000000000 ) ) ;
#3 = CARTESIAN_POINT ( 'NONE',  ( 25.00000000000000000, 0.000000000000000000, 0.000000000000000000 ) ) ;
#4 = FACE_BOUND ( 'NONE', #226, .T. ) ;
#5 = AXIS2_PLACEMENT_3D ( 'NONE', #157, #137, #243 ) ;
#6 = CARTESIAN_POINT ( 'NONE',  ( 4.499999999999999112, 0.1326938576183068208, 3.999999999999998224 ) ) ;
#7 = VERTEX_POINT ( 'NONE', #94 ) ;
#8 = EDGE_CURVE ( 'NONE', #261, #261, #126, .T. ) ;
#9 = CARTESIAN_POINT ( 'NONE',  ( 0.9999999999999997780, 0.000000000000000000, 0.000000000000000000 ) ) ;
#10 = CARTESIAN_POINT ( 'NONE',  ( 4.298468027036132177, -0.6158690764854782840, -3.953402153490726878 ) ) ;
#11 = CARTESIAN_POINT ( 'NONE',  ( 4.499999999999999112, 2.710505431213761085E-17, -3.999999999999999112 ) ) ;
#12 = DIRECTION ( 'NONE',  ( -1.000000000000000000, -0.000000000000000000, -0.000000000000000000 ) ) ;
#13 = MANIFOLD_SOLID_BREP ( 'Cut-Extrude1', #179 ) ;
#14 = CONICAL_SURFACE ( 'NONE', #235, 3.999999999999998224, 0.7853981633974466137 ) ;
#15 = CARTESIAN_POINT ( 'NONE',  ( 4.298827210815258759, -0.6154227674968552053, 3.953474246742910037 ) ) ;
#16 = SURFACE_STYLE_FILL_AREA ( #62 ) ;
#17 = CARTESIAN_POINT ( 'NONE',  ( 3.762505313344807423, 0.9737287528308435913, 3.880012529150460576 ) ) ;
#18 = ADVANCED_FACE ( 'NONE', ( #67 ), #197, .F. ) ;
#19 = EDGE_LOOP ( 'NONE', ( #40 ) ) ;
#20 = UNCERTAINTY_MEASURE_WITH_UNIT (LENGTH_MEASURE( 1.000000000000000082E-05 ), #270, 'distance_accuracy_value', 'NONE');
#21 = VERTEX_POINT ( 'NONE', #167 ) ;
#22 = CARTESIAN_POINT ( 'NONE',  ( 4.115105738646330558, -0.7990713521186505464, 3.920483232541134733 ) ) ;
#23 =( GEOMETRIC_REPRESENTATION_CONTEXT ( 3 ) GLOBAL_UNCERTAINTY_ASSIGNED_CONTEXT ( ( #119 ) ) GLOBAL_UNIT_ASSIGNED_CONTEXT ( ( #194, #86, #170 ) ) REPRESENTATION_CONTEXT ( 'NONE', 'WORKASPACE' ) );
#24 = ADVANCED_FACE ( 'NONE', ( #132, #4 ), #92, .T. ) ;
#25 = ORIENTED_EDGE ( 'NONE', *, *, #27, .T. ) ;
#26 = DIRECTION ( 'NONE',  ( 0.000000000000000000, 0.000000000000000000, 1.000000000000000000 ) ) ;
#27 = EDGE_CURVE ( 'NONE', #7, #7, #91, .T. ) ;
#28 = FACE_OUTER_BOUND ( 'NONE', #249, .T. ) ;
#29 = AXIS2_PLACEMENT_3D ( 'NONE', #215, #65, #110 ) ;
#30 = EDGE_CURVE ( 'NONE', #219, #219, #78, .T. ) ;
#31 = DIRECTION ( 'NONE',  ( -1.000000000000000000, -0.000000000000000000, -0.000000000000000000 ) ) ;
#32 = CARTESIAN_POINT ( 'NONE',  ( 3.762505313344807423, -0.9737287528308435913, -3.880012529150460576 ) ) ;
#33 = PLANE ( 'NONE',  #189 ) ;
#34 = CARTESIAN_POINT ( 'NONE',  ( 2.700319990601360853, 0.6145522981106220639, -3.953628950302296552 ) ) ;
#35 = CARTESIAN_POINT ( 'NONE',  ( 3.369617262474888797, 1.000082488561097271, -3.872962047757054993 ) ) ;
#36 = VERTEX_POINT ( 'NONE', #203 ) ;
#37 = PRODUCT_CONTEXT ( 'NONE', #223, 'mechanical' ) ;
#38 = PRODUCT_DEFINITION ( 'UNKNOWN', '', #210, #214 ) ;
#39 = CARTESIAN_POINT ( 'NONE',  ( 4.499999999999999112, -0.1326938576183073759, 4.000000000000000000 ) ) ;
#40 = ORIENTED_EDGE ( 'NONE', *, *, #8, .F. ) ;
#41 = EDGE_LOOP ( 'NONE', ( #207 ) ) ;
#42 = ORIENTED_EDGE ( 'NONE', *, *, #253, .T. ) ;
#43 = CARTESIAN_POINT ( 'NONE',  ( 23.00000000000000000, 0.000000000000000000, 0.000000000000000000 ) ) ;
#44 = CARTESIAN_POINT ( 'NONE',  ( 23.00000000000000000, 0.000000000000000000, 0.000000000000000000 ) ) ;
#45 = FACE_OUTER_BOUND ( 'NONE', #268, .T. ) ;
#46 = ADVANCED_BREP_SHAPE_REPRESENTATION ( '76.04.03.0004', ( #13, #241 ), #264 ) ;
#47 = SURFACE_STYLE_USAGE ( .BOTH. , #238 ) ;
#48 = PLANE ( 'NONE',  #150 ) ;
#49 = CARTESIAN_POINT ( 'NONE',  ( 3.763587651320584815, 0.9733782612706236570, -3.880099346375407876 ) ) ;
#50 = AXIS2_PLACEMENT_3D ( 'NONE', #9, #31, #117 ) ;
#51 = CARTESIAN_POINT ( 'NONE',  ( 4.473255713058572169, -0.2641504057689765816, -3.993100047177543299 ) ) ;
#52 = CYLINDRICAL_SURFACE ( 'NONE', #74, 1.000000000000000000 ) ;
#53 = CARTESIAN_POINT ( 'NONE',  ( 4.003987361266985623, 0.8734646124062879213, -3.903805290755550494 ) ) ;
#54 = CARTESIAN_POINT ( 'NONE',  ( 4.373106707607803401, 0.5048269823837485681, -3.969876851864702516 ) ) ;
#55 = CARTESIAN_POINT ( 'NONE',  ( 3.237365582616948956, 0.9738476366740637102, 3.879990687364517132 ) ) ;
#56 = ADVANCED_FACE ( 'NONE', ( #129, #87 ), #14, .T. ) ;
#57 = CARTESIAN_POINT ( 'NONE',  ( 2.884527973445056404, 0.7988737555279891156, 3.920534371368223248 ) ) ;
#58 = PRODUCT ( '76.04.03.0004', '76.04.03.0004', '', ( #37 ) ) ;
#59 = EDGE_LOOP ( 'NONE', ( #147 ) ) ;
#60 =( NAMED_UNIT ( * ) SI_UNIT ( $, .STERADIAN. ) SOLID_ANGLE_UNIT ( ) );
#61 = CARTESIAN_POINT ( 'NONE',  ( 4.499999999999999112, -2.710505431213761085E-17, 3.999999999999999112 ) ) ;
#62 = FILL_AREA_STYLE ('',( #101 ) ) ;
#63 = EDGE_LOOP ( 'NONE', ( #81 ) ) ;
#64 = DIRECTION ( 'NONE',  ( 0.000000000000000000, 0.000000000000000000, 1.000000000000000000 ) ) ;
#65 = DIRECTION ( 'NONE',  ( -1.000000000000000000, -0.000000000000000000, -0.000000000000000000 ) ) ;
#66 =( GEOMETRIC_REPRESENTATION_CONTEXT ( 3 ) GLOBAL_UNCERTAINTY_ASSIGNED_CONTEXT ( ( #20 ) ) GLOBAL_UNIT_ASSIGNED_CONTEXT ( ( #270, #130, #118 ) ) REPRESENTATION_CONTEXT ( 'NONE', 'WORKASPACE' ) );
#67 = FACE_OUTER_BOUND ( 'NONE', #228, .T. ) ;
#68 = DIRECTION ( 'NONE',  ( 0.000000000000000000, 0.000000000000000000, -1.000000000000000000 ) ) ;
#69 = FACE_OUTER_BOUND ( 'NONE', #84, .T. ) ;
#70 = AXIS2_PLACEMENT_3D ( 'NONE', #202, #12, #136 ) ;
#71 = SURFACE_STYLE_FILL_AREA ( #133 ) ;
#72 = CARTESIAN_POINT ( 'NONE',  ( 4.500000000000000000, 0.000000000000000000, 4.000000000000000000 ) ) ;
#73 = CARTESIAN_POINT ( 'NONE',  ( 3.238331849061597545, 0.9740642140566057039, -3.879932478000870599 ) ) ;
#74 = AXIS2_PLACEMENT_3D ( 'NONE', #177, #262, #199 ) ;
#75 = DIRECTION ( 'NONE',  ( 1.000000000000000000, 0.000000000000000000, 0.000000000000000000 ) ) ;
#76 = CARTESIAN_POINT ( 'NONE',  ( 4.499999999999999112, 0.1326938576183073759, -4.000000000000000000 ) ) ;
#77 = CARTESIAN_POINT ( 'NONE',  ( 4.298827210815258759, 0.6154227674968552053, -3.953474246742910037 ) ) ;
#78 = CIRCLE ( 'NONE', #193, 3.000000000000001776 ) ;
#79 = CARTESIAN_POINT ( 'NONE',  ( 2.885609595351987355, -0.7998043981007503245, 3.920353214770347705 ) ) ;
#80 = CARTESIAN_POINT ( 'NONE',  ( 0.000000000000000000, 0.000000000000000000, 0.000000000000000000 ) ) ;
#81 = ORIENTED_EDGE ( 'NONE', *, *, #8, .T. ) ;
#82 = EDGE_LOOP ( 'NONE', ( #124 ) ) ;
#83 = CARTESIAN_POINT ( 'NONE',  ( -2.112623243741537060E-16, 0.000000000000000000, 3.000000000000001776 ) ) ;
#84 = EDGE_LOOP ( 'NONE', ( #271 ) ) ;
#85 = CARTESIAN_POINT ( 'NONE',  ( 2.994110108727879638, 0.8726004094420745094, 3.904007617683724174 ) ) ;
#86 =( NAMED_UNIT ( * ) PLANE_ANGLE_UNIT ( ) SI_UNIT ( $, .RADIAN. ) );
#87 = FACE_OUTER_BOUND ( 'NONE', #185, .T. ) ;
#88 = DIRECTION ( 'NONE',  ( 0.000000000000000000, 0.000000000000000000, -1.000000000000000000 ) ) ;
#89 = PRODUCT_RELATED_PRODUCT_CATEGORY ( 'part', '', ( #58 ) ) ;
#90 = CARTESIAN_POINT ( 'NONE',  ( 0.9999999999999997780, 0.000000000000000000, 0.000000000000000000 ) ) ;
#91 = CIRCLE ( 'NONE', #160, 4.000000000000001776 ) ;
#92 = CONICAL_SURFACE ( 'NONE', #246, 5.000000000000004441, 0.7853981633974466137 ) ;
#93 = CARTESIAN_POINT ( 'NONE',  ( 25.00000000000000000, 0.000000000000000000, 0.000000000000000000 ) ) ;
#94 = CARTESIAN_POINT ( 'NONE',  ( 23.00000000000000000, 0.000000000000000000, 4.000000000000001776 ) ) ;
#95 = FACE_OUTER_BOUND ( 'NONE', #59, .T. ) ;
#96 = COLOUR_RGB ( '',0.7764705882352941346, 0.7568627450980391913, 0.7372549019607843590 ) ;
#97 = CARTESIAN_POINT ( 'NONE',  ( 2.526388374808140380, 0.2629879425960676143, -3.993186714740070364 ) ) ;
#98 = CARTESIAN_POINT ( 'NONE',  ( 4.115105738646330558, 0.7990713521186505464, -3.920483232541134733 ) ) ;
#99 = ADVANCED_FACE ( 'NONE', ( #256, #259, #69, #45 ), #153, .T. ) ;
#100 = ORIENTED_EDGE ( 'NONE', *, *, #247, .T. ) ;
#101 = FILL_AREA_STYLE_COLOUR ( '', #183 ) ;
#102 = APPLICATION_CONTEXT ( 'automotive_design' ) ;
#103 = ORIENTED_EDGE ( 'NONE', *, *, #163, .T. ) ;
#104 = ADVANCED_FACE ( 'NONE', ( #28 ), #48, .F. ) ;
#105 = VERTEX_POINT ( 'NONE', #184 ) ;
#106 = CARTESIAN_POINT ( 'NONE',  ( 4.003987361266985623, -0.8734646124062879213, 3.903805290755550494 ) ) ;
#107 = CARTESIAN_POINT ( 'NONE',  ( 2.500055441999219585, -0.1312464544659426857, 3.999986139501356508 ) ) ;
#108 = DIRECTION ( 'NONE',  ( 0.000000000000000000, 0.000000000000000000, 1.000000000000000000 ) ) ;
#109 = EDGE_CURVE ( 'NONE', #225, #225, #182, .T. ) ;
#110 = DIRECTION ( 'NONE',  ( 0.000000000000000000, 0.000000000000000000, 1.000000000000000000 ) ) ;
#111 = AXIS2_PLACEMENT_3D ( 'NONE', #115, #265, #141 ) ;
#112 = CARTESIAN_POINT ( 'NONE',  ( 4.473255713058572169, 0.2641504057689765816, 3.993100047177543299 ) ) ;
#113 = CARTESIAN_POINT ( 'NONE',  ( 4.298468027036132177, 0.6158690764854782840, 3.953402153490726878 ) ) ;
#114 = CARTESIAN_POINT ( 'NONE',  ( 2.994110108727879638, -0.8726004094420745094, -3.904007617683724174 ) ) ;
#115 = CARTESIAN_POINT ( 'NONE',  ( 25.00000000000000000, 0.000000000000000000, 0.000000000000000000 ) ) ;
#116 = CARTESIAN_POINT ( 'NONE',  ( 2.884527973445056404, -0.7988737555279891156, -3.920534371368223248 ) ) ;
#117 = DIRECTION ( 'NONE',  ( 0.000000000000000000, 0.000000000000000000, 1.000000000000000000 ) ) ;
#118 =( NAMED_UNIT ( * ) SI_UNIT ( $, .STERADIAN. ) SOLID_ANGLE_UNIT ( ) );
#119 = UNCERTAINTY_MEASURE_WITH_UNIT (LENGTH_MEASURE( 1.000000000000000082E-05 ), #194, 'distance_accuracy_value', 'NONE');
#120 = CARTESIAN_POINT ( 'NONE',  ( 3.631413683026627925, -1.000069203228642900, -3.872965478013312257 ) ) ;
#121 =( LENGTH_UNIT ( ) NAMED_UNIT ( * ) SI_UNIT ( .MILLI., .METRE. ) );
#122 = ORIENTED_EDGE ( 'NONE', *, *, #27, .F. ) ;
#123 = ORIENTED_EDGE ( 'NONE', *, *, #145, .T. ) ;
#124 = ORIENTED_EDGE ( 'NONE', *, *, #109, .F. ) ;
#125 = EDGE_LOOP ( 'NONE', ( #122 ) ) ;
#126 = B_SPLINE_CURVE_WITH_KNOTS ( 'NONE', 3,
 ( #61, #39, #233, #209, #15, #22, #106, #164, #267, #190, #272, #255, #79, #149, #234, #211, #107, #248, #168, #191, #273, #57, #85, #55, #142, #206, #17, #187, #237, #113, #217, #112, #6, #196 ),
 .UNSPECIFIED., .T., .F.,
 ( 4, 2, 2, 2, 2, 2, 2, 2, 2, 2, 2, 2, 2, 2, 2, 2, 4 ),
 ( 0.000000000000000000, 0.0003923156643295066756, 0.0007846313286590133511, 0.001176946992988520081, 0.001569262657318025401, 0.001961578321647530938, 0.002353893985977036692, 0.002746209650306542446, 0.003138525314636047333, 0.003530840978965553087, 0.003923156643295058407, 0.004315472307624563728, 0.004707787971954069048, 0.005100103636283574368, 0.005492419300613079688, 0.005884734964942585009, 0.006277050629272090329 ),
 .UNSPECIFIED. ) ;
#127 = EDGE_LOOP ( 'NONE', ( #42 ) ) ;
#128 = CARTESIAN_POINT ( 'NONE',  ( -2.112623243741537060E-16, 0.000000000000000000, 0.000000000000000000 ) ) ;
#129 = FACE_BOUND ( 'NONE', #41, .T. ) ;
#130 =( NAMED_UNIT ( * ) PLANE_ANGLE_UNIT ( ) SI_UNIT ( $, .RADIAN. ) );
#131 = PRESENTATION_STYLE_ASSIGNMENT (( #47 ) ) ;
#132 = FACE_OUTER_BOUND ( 'NONE', #254, .T. ) ;
#133 = FILL_AREA_STYLE ('',( #172 ) ) ;
#134 = CARTESIAN_POINT ( 'NONE',  ( 2.626189573984040848, -0.5034530331280135940, -3.970035785920771332 ) ) ;
#135 = CIRCLE ( 'NONE', #50, 3.999999999999998224 ) ;
#136 = DIRECTION ( 'NONE',  ( 0.000000000000000000, 0.000000000000000000, 1.000000000000000000 ) ) ;
#137 = DIRECTION ( 'NONE',  ( -1.000000000000000000, -0.000000000000000000, -0.000000000000000000 ) ) ;
#138 = PRODUCT_DEFINITION_SHAPE ( 'NONE', 'NONE',  #38 ) ;
#139 = CARTESIAN_POINT ( 'NONE',  ( 2.995540123240334918, 0.8733793832355212228, -3.903829604361698902 ) ) ;
#140 = ADVANCED_FACE ( 'NONE', ( #192, #274 ), #52, .F. ) ;
#141 = DIRECTION ( 'NONE',  ( 0.000000000000000000, 0.000000000000000000, 1.000000000000000000 ) ) ;
#142 = CARTESIAN_POINT ( 'NONE',  ( 3.367535207020960542, 0.9999305205633123306, 3.873001285718253417 ) ) ;
#143 = MECHANICAL_DESIGN_GEOMETRIC_PRESENTATION_REPRESENTATION (  '', ( #252 ), #66 ) ;
#144 =( NAMED_UNIT ( * ) PLANE_ANGLE_UNIT ( ) SI_UNIT ( $, .RADIAN. ) );
#145 = EDGE_CURVE ( 'NONE', #105, #105, #135, .T. ) ;
#146 = ORIENTED_EDGE ( 'NONE', *, *, #163, .F. ) ;
#147 = ORIENTED_EDGE ( 'NONE', *, *, #109, .T. ) ;
#148 = PRESENTATION_STYLE_ASSIGNMENT (( #186 ) ) ;
#149 = CARTESIAN_POINT ( 'NONE',  ( 2.700319990601360853, -0.6145522981106220639, 3.953628950302296552 ) ) ;
#150 = AXIS2_PLACEMENT_3D ( 'NONE', #258, #151, #68 ) ;
#151 = DIRECTION ( 'NONE',  ( 1.000000000000000000, 0.000000000000000000, 0.000000000000000000 ) ) ;
#152 = DIRECTION ( 'NONE',  ( 0.000000000000000000, 0.000000000000000000, 1.000000000000000000 ) ) ;
#153 = CYLINDRICAL_SURFACE ( 'NONE', #29, 4.000000000000000000 ) ;
#154 = DIRECTION ( 'NONE',  ( -1.000000000000000000, 0.000000000000000000, -0.000000000000000000 ) ) ;
#155 = CARTESIAN_POINT ( 'NONE',  ( 2.885609595351987355, 0.7998043981007503245, -3.920353214770347705 ) ) ;
#156 = CARTESIAN_POINT ( 'NONE',  ( 2.500055441999219585, 0.1312464544659426857, -3.999986139501356508 ) ) ;
#157 = CARTESIAN_POINT ( 'NONE',  ( 24.00000000000000000, 0.000000000000000000, 0.000000000000000000 ) ) ;
#158 = CARTESIAN_POINT ( 'NONE',  ( 2.526293510817843924, -0.2624981716213485305, -3.993212216743908805 ) ) ;
#159 = CARTESIAN_POINT ( 'NONE',  ( 4.003775730693104329, -0.8736513817240795232, -3.903764615555818551 ) ) ;
#160 = AXIS2_PLACEMENT_3D ( 'NONE', #44, #2, #108 ) ;
#161 = CARTESIAN_POINT ( 'NONE',  ( 23.00000000000000000, 0.000000000000000000, 6.000000000000000888 ) ) ;
#162 = ORIENTED_EDGE ( 'NONE', *, *, #30, .T. ) ;
#163 = EDGE_CURVE ( 'NONE', #36, #36, #229, .T. ) ;
#164 = CARTESIAN_POINT ( 'NONE',  ( 3.763587651320584815, -0.9733782612706236570, 3.880099346375407876 ) ) ;
#165 = CARTESIAN_POINT ( 'NONE',  ( 24.00000000000000000, 0.000000000000000000, 6.000000000000001776 ) ) ;
#166 = EDGE_LOOP ( 'NONE', ( #188 ) ) ;
#167 = CARTESIAN_POINT ( 'NONE',  ( 4.500000000000000000, -2.407412430484044816E-32, -4.000000000000000000 ) ) ;
#168 = CARTESIAN_POINT ( 'NONE',  ( 2.526293510817843924, 0.2624981716213485305, 3.993212216743908805 ) ) ;
#169 = AXIS2_PLACEMENT_3D ( 'NONE', #43, #213, #26 ) ;
#170 =( NAMED_UNIT ( * ) SI_UNIT ( $, .STERADIAN. ) SOLID_ANGLE_UNIT ( ) );
#171 = DIRECTION ( 'NONE',  ( 0.000000000000000000, 0.000000000000000000, 1.000000000000000000 ) ) ;
#172 = FILL_AREA_STYLE_COLOUR ( '', #96 ) ;
#173 = DIRECTION ( 'NONE',  ( -0.000000000000000000, 0.000000000000000000, 1.000000000000000000 ) ) ;
#174 = AXIS2_PLACEMENT_3D ( 'NONE', #93, #154, #173 ) ;
#175 = PRESENTATION_LAYER_ASSIGNMENT (  '', '', ( #252 ) ) ;
#176 = CARTESIAN_POINT ( 'NONE',  ( 2.626682660376375100, 0.5043798954878732088, -3.969924900770184895 ) ) ;
#177 = CARTESIAN_POINT ( 'NONE',  ( 3.499999999999999556, -2.407412430484044816E-32, -6.000000000000001776 ) ) ;
#178 = CARTESIAN_POINT ( 'NONE',  ( 23.00000000000000000, 6.000000000000000888, 0.000000000000000000 ) ) ;
#179 = CLOSED_SHELL ( 'NONE', ( #18, #24, #269, #236, #99, #56, #104, #140 ) ) ;
#180 = CARTESIAN_POINT ( 'NONE',  ( 2.499944737021683405, -0.1304002372491132045, -4.000013815743416856 ) ) ;
#181 = FACE_BOUND ( 'NONE', #125, .T. ) ;
#182 = CIRCLE ( 'NONE', #169, 6.000000000000000888 ) ;
#183 = COLOUR_RGB ( '',0.7764705882352941346, 0.7568627450980391913, 0.7372549019607843590 ) ;
#184 = CARTESIAN_POINT ( 'NONE',  ( 0.9999999999999997780, 0.000000000000000000, 3.999999999999998224 ) ) ;
#185 = EDGE_LOOP ( 'NONE', ( #123 ) ) ;
#186 = SURFACE_STYLE_USAGE ( .BOTH. , #230 ) ;
#187 = CARTESIAN_POINT ( 'NONE',  ( 4.003775730693104329, 0.8736513817240795232, 3.903764615555818551 ) ) ;
#188 = ORIENTED_EDGE ( 'NONE', *, *, #253, .F. ) ;
#189 = AXIS2_PLACEMENT_3D ( 'NONE', #178, #75, #263 ) ;
#190 = CARTESIAN_POINT ( 'NONE',  ( 3.369617262474888797, -1.000082488561097271, 3.872962047757054993 ) ) ;
#191 = CARTESIAN_POINT ( 'NONE',  ( 2.626189573984040848, 0.5034530331280135940, 3.970035785920771332 ) ) ;
#192 = FACE_OUTER_BOUND ( 'NONE', #166, .T. ) ;
#193 = AXIS2_PLACEMENT_3D ( 'NONE', #128, #195, #171 ) ;
#194 =( LENGTH_UNIT ( ) NAMED_UNIT ( * ) SI_UNIT ( .MILLI., .METRE. ) );
#195 = DIRECTION ( 'NONE',  ( -1.000000000000000000, -0.000000000000000000, -0.000000000000000000 ) ) ;
#196 = CARTESIAN_POINT ( 'NONE',  ( 4.499999999999999112, -2.710505431213761085E-17, 3.999999999999999112 ) ) ;
#197 = PLANE ( 'NONE',  #174 ) ;
#198 = CARTESIAN_POINT ( 'NONE',  ( 3.237365582616948956, -0.9738476366740637102, -3.879990687364517132 ) ) ;
#199 = DIRECTION ( 'NONE',  ( 1.000000000000000000, 0.000000000000000000, 0.000000000000000000 ) ) ;
#200 = CARTESIAN_POINT ( 'NONE',  ( 4.114790891525037075, -0.7992984857160070344, -3.920434317435800509 ) ) ;
#201 = CARTESIAN_POINT ( 'NONE',  ( 4.499999999999999112, 2.710505431213761085E-17, -3.999999999999999112 ) ) ;
#202 = CARTESIAN_POINT ( 'NONE',  ( 0.000000000000000000, 0.000000000000000000, 0.000000000000000000 ) ) ;
#203 = CARTESIAN_POINT ( 'NONE',  ( 25.00000000000000000, 0.000000000000000000, 5.000000000000004441 ) ) ;
#204 = ORIENTED_EDGE ( 'NONE', *, *, #247, .F. ) ;
#205 = APPLICATION_PROTOCOL_DEFINITION ( 'draft international standard', 'automotive_design', 1998, #102 ) ;
#206 = CARTESIAN_POINT ( 'NONE',  ( 3.631413683026627925, 1.000069203228642900, 3.872965478013312257 ) ) ;
#207 = ORIENTED_EDGE ( 'NONE', *, *, #30, .F. ) ;
#208 = VERTEX_POINT ( 'NONE', #165 ) ;
#209 = CARTESIAN_POINT ( 'NONE',  ( 4.373106707607803401, -0.5048269823837485681, 3.969876851864702516 ) ) ;
#210 = PRODUCT_DEFINITION_FORMATION_WITH_SPECIFIED_SOURCE ( 'ANY', '', #58, .NOT_KNOWN. ) ;
#211 = CARTESIAN_POINT ( 'NONE',  ( 2.526388374808140380, -0.2629879425960676143, 3.993186714740070364 ) ) ;
#212 = B_SPLINE_CURVE_WITH_KNOTS ( 'NONE', 3,
 ( #201, #76, #224, #54, #77, #98, #53, #49, #239, #35, #73, #139, #155, #34, #176, #97, #156, #180, #158, #134, #221, #116, #114, #198, #220, #120, #32, #159, #200, #10, #240, #51, #242, #11 ),
 .UNSPECIFIED., .T., .F.,
 ( 4, 2, 2, 2, 2, 2, 2, 2, 2, 2, 2, 2, 2, 2, 2, 2, 4 ),
 ( 0.000000000000000000, 0.0003923156643295066756, 0.0007846313286590133511, 0.001176946992988520081, 0.001569262657318025401, 0.001961578321647530938, 0.002353893985977036692, 0.002746209650306542446, 0.003138525314636047333, 0.003530840978965553087, 0.003923156643295058407, 0.004315472307624563728, 0.004707787971954069048, 0.005100103636283574368, 0.005492419300613079688, 0.005884734964942585009, 0.006277050629272090329 ),
 .UNSPECIFIED. ) ;
#213 = DIRECTION ( 'NONE',  ( -1.000000000000000000, -0.000000000000000000, -0.000000000000000000 ) ) ;
#214 = PRODUCT_DEFINITION_CONTEXT ( 'detailed design', #102, 'design' ) ;
#215 = CARTESIAN_POINT ( 'NONE',  ( 0.000000000000000000, 0.000000000000000000, 0.000000000000000000 ) ) ;
#216 = DIRECTION ( 'NONE',  ( -1.000000000000000000, -0.000000000000000000, -0.000000000000000000 ) ) ;
#217 = CARTESIAN_POINT ( 'NONE',  ( 4.372979507511558950, 0.5048850357595637828, 3.969850692948448945 ) ) ;
#218 = FACE_OUTER_BOUND ( 'NONE', #231, .T. ) ;
#219 = VERTEX_POINT ( 'NONE', #83 ) ;
#220 = CARTESIAN_POINT ( 'NONE',  ( 3.367535207020960542, -0.9999305205633123306, -3.873001285718253417 ) ) ;
#221 = CARTESIAN_POINT ( 'NONE',  ( 2.700242099943472862, -0.6143227116428432444, -3.953656110527420608 ) ) ;
#222 = PRESENTATION_LAYER_ASSIGNMENT (  '', '', ( #245 ) ) ;
#223 = APPLICATION_CONTEXT ( 'automotive_design' ) ;
#224 = CARTESIAN_POINT ( 'NONE',  ( 4.473687777201589277, 0.2628644470837504521, -3.993203574020895097 ) ) ;
#225 = VERTEX_POINT ( 'NONE', #161 ) ;
#226 = EDGE_LOOP ( 'NONE', ( #103 ) ) ;
#227 = APPLICATION_PROTOCOL_DEFINITION ( 'draft international standard', 'automotive_design', 1998, #223 ) ;
#228 = EDGE_LOOP ( 'NONE', ( #146 ) ) ;
#229 = CIRCLE ( 'NONE', #111, 5.000000000000004441 ) ;
#230 = SURFACE_SIDE_STYLE ('',( #16 ) ) ;
#231 = EDGE_LOOP ( 'NONE', ( #100 ) ) ;
#232 = UNCERTAINTY_MEASURE_WITH_UNIT (LENGTH_MEASURE( 1.000000000000000082E-05 ), #121, 'distance_accuracy_value', 'NONE');
#233 = CARTESIAN_POINT ( 'NONE',  ( 4.473687777201589277, -0.2628644470837504521, 3.993203574020895097 ) ) ;
#234 = CARTESIAN_POINT ( 'NONE',  ( 2.626682660376375100, -0.5043798954878732088, 3.969924900770184895 ) ) ;
#235 = AXIS2_PLACEMENT_3D ( 'NONE', #90, #260, #88 ) ;
#236 = ADVANCED_FACE ( 'NONE', ( #181, #95 ), #33, .F. ) ;
#237 = CARTESIAN_POINT ( 'NONE',  ( 4.114790891525037075, 0.7992984857160070344, 3.920434317435800509 ) ) ;
#238 = SURFACE_SIDE_STYLE ('',( #71 ) ) ;
#239 = CARTESIAN_POINT ( 'NONE',  ( 3.631645011645382226, 0.9999171131048740779, -3.873004747507172052 ) ) ;
#240 = CARTESIAN_POINT ( 'NONE',  ( 4.372979507511558950, -0.5048850357595637828, -3.969850692948448945 ) ) ;
#241 = AXIS2_PLACEMENT_3D ( 'NONE', #80, #64, #257 ) ;
#242 = CARTESIAN_POINT ( 'NONE',  ( 4.499999999999999112, -0.1326938576183068208, -3.999999999999998224 ) ) ;
#243 = DIRECTION ( 'NONE',  ( 0.000000000000000000, 0.000000000000000000, 1.000000000000000000 ) ) ;
#244 = CYLINDRICAL_SURFACE ( 'NONE', #70, 6.000000000000001776 ) ;
#245 = STYLED_ITEM ( 'NONE', ( #131 ), #13 ) ;
#246 = AXIS2_PLACEMENT_3D ( 'NONE', #3, #216, #152 ) ;
#247 = EDGE_CURVE ( 'NONE', #208, #208, #1, .T. ) ;
#248 = CARTESIAN_POINT ( 'NONE',  ( 2.499944737021683405, 0.1304002372491132045, 4.000013815743416856 ) ) ;
#249 = EDGE_LOOP ( 'NONE', ( #162 ) ) ;
#250 = MECHANICAL_DESIGN_GEOMETRIC_PRESENTATION_REPRESENTATION (  '', ( #245 ), #23 ) ;
#251 = SHAPE_DEFINITION_REPRESENTATION ( #138, #46 ) ;
#252 = STYLED_ITEM ( 'NONE', ( #148 ), #46 ) ;
#253 = EDGE_CURVE ( 'NONE', #21, #21, #212, .T. ) ;
#254 = EDGE_LOOP ( 'NONE', ( #204 ) ) ;
#255 = CARTESIAN_POINT ( 'NONE',  ( 2.995540123240334918, -0.8733793832355212228, 3.903829604361698902 ) ) ;
#256 = FACE_BOUND ( 'NONE', #63, .T. ) ;
#257 = DIRECTION ( 'NONE',  ( 1.000000000000000000, 0.000000000000000000, 0.000000000000000000 ) ) ;
#258 = CARTESIAN_POINT ( 'NONE',  ( -1.056311621870768530E-16, 3.000000000000001776, 0.000000000000000000 ) ) ;
#259 = FACE_BOUND ( 'NONE', #127, .T. ) ;
#260 = DIRECTION ( 'NONE',  ( 1.000000000000000000, 0.000000000000000000, 0.000000000000000000 ) ) ;
#261 = VERTEX_POINT ( 'NONE', #72 ) ;
#262 = DIRECTION ( 'NONE',  ( -0.000000000000000000, -0.000000000000000000, 1.000000000000000000 ) ) ;
#263 = DIRECTION ( 'NONE',  ( 0.000000000000000000, 0.000000000000000000, -1.000000000000000000 ) ) ;
#264 =( GEOMETRIC_REPRESENTATION_CONTEXT ( 3 ) GLOBAL_UNCERTAINTY_ASSIGNED_CONTEXT ( ( #232 ) ) GLOBAL_UNIT_ASSIGNED_CONTEXT ( ( #121, #144, #60 ) ) REPRESENTATION_CONTEXT ( 'NONE', 'WORKASPACE' ) );
#265 = DIRECTION ( 'NONE',  ( -1.000000000000000000, -0.000000000000000000, -0.000000000000000000 ) ) ;
#266 = FACE_OUTER_BOUND ( 'NONE', #82, .T. ) ;
#267 = CARTESIAN_POINT ( 'NONE',  ( 3.631645011645382226, -0.9999171131048740779, 3.873004747507172052 ) ) ;
#268 = EDGE_LOOP ( 'NONE', ( #25 ) ) ;
#269 = ADVANCED_FACE ( 'NONE', ( #266, #218 ), #244, .T. ) ;
#270 =( LENGTH_UNIT ( ) NAMED_UNIT ( * ) SI_UNIT ( .MILLI., .METRE. ) );
#271 = ORIENTED_EDGE ( 'NONE', *, *, #145, .F. ) ;
#272 = CARTESIAN_POINT ( 'NONE',  ( 3.238331849061597545, -0.9740642140566057039, 3.879932478000870599 ) ) ;
#273 = CARTESIAN_POINT ( 'NONE',  ( 2.700242099943472862, 0.6143227116428432444, 3.953656110527420608 ) ) ;
#274 = FACE_OUTER_BOUND ( 'NONE', #19, .T. ) ;
ENDSEC;
END-ISO-10303-21;
