ISO-10303-21;
HEADER;
FILE_DESCRIPTION (( 'STEP AP214' ),
    '1' );
FILE_NAME ('76.04.03.0001.step',
    '2021-04-02T18:00:15',
    ( '' ),
    ( '' ),
    'SwSTEP 2.0',
    'SolidWorks 2021',
    '' );
FILE_SCHEMA (( 'AUTOMOTIVE_DESIGN' ));
ENDSEC;

DATA;
#1 = CIRCLE ( 'NONE', #122, 1.200000000000001288 ) ;
#2 = CARTESIAN_POINT ( 'NONE',  ( 2.131676460514731364, 0.5000692722806541202, 1.936473787080419839 ) ) ;
#3 = SURFACE_STYLE_FILL_AREA ( #17 ) ;
#4 = CARTESIAN_POINT ( 'NONE',  ( 13.00000000000000178, 0.000000000000000000, 2.500000000000001776 ) ) ;
#5 = CARTESIAN_POINT ( 'NONE',  ( 2.261476161884746094, -0.4455065951656356771, -1.951975199704166331 ) ) ;
#6 = DIRECTION ( 'NONE',  ( 0.000000000000000000, 0.000000000000000000, 1.000000000000000000 ) ) ;
#7 = CARTESIAN_POINT ( 'NONE',  ( 2.000000000000000000, 0.000000000000000000, -3.000000000000000888 ) ) ;
#8 = AXIS2_PLACEMENT_3D ( 'NONE', #225, #190, #189 ) ;
#9 = CARTESIAN_POINT ( 'NONE',  ( 0.7999999999999999334, 0.000000000000000000, 1.999999999999998668 ) ) ;
#10 = EDGE_LOOP ( 'NONE', ( #103 ) ) ;
#11 = ORIENTED_EDGE ( 'NONE', *, *, #146, .F. ) ;
#12 = EDGE_LOOP ( 'NONE', ( #128 ) ) ;
#13 = AXIS2_PLACEMENT_3D ( 'NONE', #178, #230, #125 ) ;
#14 = EDGE_CURVE ( 'NONE', #24, #24, #112, .T. ) ;
#15 = PLANE ( 'NONE',  #85 ) ;
#16 =( GEOMETRIC_REPRESENTATION_CONTEXT ( 3 ) GLOBAL_UNCERTAINTY_ASSIGNED_CONTEXT ( ( #18 ) ) GLOBAL_UNIT_ASSIGNED_CONTEXT ( ( #23, #90, #136 ) ) REPRESENTATION_CONTEXT ( 'NONE', 'WORKASPACE' ) );
#17 = FILL_AREA_STYLE ('',( #221 ) ) ;
#18 = UNCERTAINTY_MEASURE_WITH_UNIT (LENGTH_MEASURE( 1.000000000000000082E-05 ), #23, 'distance_accuracy_value', 'NONE');
#19 = CARTESIAN_POINT ( 'NONE',  ( 12.00000000000000000, 0.000000000000000000, 0.000000000000000000 ) ) ;
#20 = FACE_BOUND ( 'NONE', #109, .T. ) ;
#21 = COLOUR_RGB ( '',0.7764705882352941346, 0.7568627450980391913, 0.7372549019607843590 ) ;
#22 = ADVANCED_FACE ( 'NONE', ( #235, #44 ), #179, .F. ) ;
#23 =( LENGTH_UNIT ( ) NAMED_UNIT ( * ) SI_UNIT ( .MILLI., .METRE. ) );
#24 = VERTEX_POINT ( 'NONE', #45 ) ;
#25 = CIRCLE ( 'NONE', #224, 3.000000000000000888 ) ;
#26 = FACE_OUTER_BOUND ( 'NONE', #143, .T. ) ;
#27 = CARTESIAN_POINT ( 'NONE',  ( 2.131329443115315136, 0.4999172126883815737, -1.936513048691114847 ) ) ;
#28 = FILL_AREA_STYLE_COLOUR ( '', #21 ) ;
#29 = CARTESIAN_POINT ( 'NONE',  ( 2.131676460514731364, -0.5000692722806541202, -1.936473787080419839 ) ) ;
#30 = VERTEX_POINT ( 'NONE', #105 ) ;
#31 = EDGE_LOOP ( 'NONE', ( #89 ) ) ;
#32 = COLOUR_RGB ( '',0.7764705882352941346, 0.7568627450980391913, 0.7372549019607843590 ) ;
#33 = DIRECTION ( 'NONE',  ( 0.000000000000000000, 0.000000000000000000, 1.000000000000000000 ) ) ;
#34 = EDGE_LOOP ( 'NONE', ( #106 ) ) ;
#35 = CARTESIAN_POINT ( 'NONE',  ( 2.500000000000000444, 0.000000000000000000, 1.999999999999999112 ) ) ;
#36 = DIRECTION ( 'NONE',  ( 0.000000000000000000, 0.000000000000000000, 1.000000000000000000 ) ) ;
#37 =( NAMED_UNIT ( * ) PLANE_ANGLE_UNIT ( ) SI_UNIT ( $, .RADIAN. ) );
#38 = CARTESIAN_POINT ( 'NONE',  ( 1.869301693944821263, -0.5000825881446044896, 1.936470348940997344 ) ) ;
#39 = SURFACE_STYLE_USAGE ( .BOTH. , #133 ) ;
#40 = VERTEX_POINT ( 'NONE', #152 ) ;
#41 = VERTEX_POINT ( 'NONE', #174 ) ;
#42 = FILL_AREA_STYLE ('',( #28 ) ) ;
#43 = PRESENTATION_LAYER_ASSIGNMENT (  '', '', ( #232 ) ) ;
#44 = FACE_OUTER_BOUND ( 'NONE', #236, .T. ) ;
#45 = CARTESIAN_POINT ( 'NONE',  ( 2.500000000000000000, 0.000000000000000000, -1.999999999999999112 ) ) ;
#46 = ORIENTED_EDGE ( 'NONE', *, *, #119, .F. ) ;
#47 = CYLINDRICAL_SURFACE ( 'NONE', #163, 1.999999999999999112 ) ;
#48 = DIRECTION ( 'NONE',  ( 1.000000000000000000, 0.000000000000000000, 0.000000000000000000 ) ) ;
#49 = CARTESIAN_POINT ( 'NONE',  ( 0.000000000000000000, 0.000000000000000000, 0.000000000000000000 ) ) ;
#50 = ORIENTED_EDGE ( 'NONE', *, *, #161, .F. ) ;
#51 = SHAPE_DEFINITION_REPRESENTATION ( #185, #66 ) ;
#52 = CARTESIAN_POINT ( 'NONE',  ( 2.500000000000000000, 0.1326938576183071539, -1.999999999999998224 ) ) ;
#53 = CARTESIAN_POINT ( 'NONE',  ( 1.500055397243994726, -0.1310349001617353293, 1.999986150690163056 ) ) ;
#54 = CONICAL_SURFACE ( 'NONE', #153, 1.999999999999998668, 0.7853981633974468357 ) ;
#55 = DIRECTION ( 'NONE',  ( 1.000000000000000000, 0.000000000000000000, 0.000000000000000000 ) ) ;
#56 = CARTESIAN_POINT ( 'NONE',  ( 1.499944692266457658, 0.1306117915533210050, 2.000013826932223182 ) ) ;
#57 = PRODUCT_RELATED_PRODUCT_CATEGORY ( 'part', '', ( #183 ) ) ;
#58 = PRODUCT_DEFINITION_FORMATION_WITH_SPECIFIED_SOURCE ( 'ANY', '', #183, .NOT_KNOWN. ) ;
#59 = DIRECTION ( 'NONE',  ( 0.000000000000000000, 0.000000000000000000, 1.000000000000000000 ) ) ;
#60 = DIRECTION ( 'NONE',  ( -1.000000000000000000, -0.000000000000000000, -0.000000000000000000 ) ) ;
#61 = DIRECTION ( 'NONE',  ( -1.000000000000000000, -0.000000000000000000, -0.000000000000000000 ) ) ;
#62 = CARTESIAN_POINT ( 'NONE',  ( 13.00000000000000000, 0.000000000000000000, 0.000000000000000000 ) ) ;
#63 = PRESENTATION_LAYER_ASSIGNMENT (  '', '', ( #84 ) ) ;
#64 = DIRECTION ( 'NONE',  ( -0.000000000000000000, 0.000000000000000000, 1.000000000000000000 ) ) ;
#65 = VERTEX_POINT ( 'NONE', #4 ) ;
#66 = ADVANCED_BREP_SHAPE_REPRESENTATION ( '76.04.03.0001', ( #167, #219 ), #16 ) ;
#67 = CIRCLE ( 'NONE', #202, 2.000000000000000000 ) ;
#68 = ORIENTED_EDGE ( 'NONE', *, *, #87, .T. ) ;
#69 = CARTESIAN_POINT ( 'NONE',  ( 1.738335455097924864, -0.4455746387352811366, -1.951986750894311395 ) ) ;
#70 =( NAMED_UNIT ( * ) SI_UNIT ( $, .STERADIAN. ) SOLID_ANGLE_UNIT ( ) );
#71 = FACE_OUTER_BOUND ( 'NONE', #141, .T. ) ;
#72 = ORIENTED_EDGE ( 'NONE', *, *, #146, .T. ) ;
#73 = EDGE_LOOP ( 'NONE', ( #46 ) ) ;
#74 =( LENGTH_UNIT ( ) NAMED_UNIT ( * ) SI_UNIT ( .MILLI., .METRE. ) );
#75 = MECHANICAL_DESIGN_GEOMETRIC_PRESENTATION_REPRESENTATION (  '', ( #84 ), #197 ) ;
#76 = CARTESIAN_POINT ( 'NONE',  ( 5.399835038746164662E-17, 1.200000000000001288, 0.000000000000000000 ) ) ;
#77 = PRODUCT_DEFINITION_CONTEXT ( 'detailed design', #104, 'design' ) ;
#78 = AXIS2_PLACEMENT_3D ( 'NONE', #173, #222, #114 ) ;
#79 = CARTESIAN_POINT ( 'NONE',  ( 1.553837594113024467, -0.2609631240577789946, 1.985133409034135488 ) ) ;
#80 = ADVANCED_FACE ( 'NONE', ( #71, #142 ), #184, .T. ) ;
#81 = CARTESIAN_POINT ( 'NONE',  ( 1.079967007749232932E-16, 0.000000000000000000, 0.000000000000000000 ) ) ;
#82 =( NAMED_UNIT ( * ) SI_UNIT ( $, .STERADIAN. ) SOLID_ANGLE_UNIT ( ) );
#83 = FACE_OUTER_BOUND ( 'NONE', #31, .T. ) ;
#84 = STYLED_ITEM ( 'NONE', ( #107 ), #66 ) ;
#85 = AXIS2_PLACEMENT_3D ( 'NONE', #76, #207, #115 ) ;
#86 = PLANE ( 'NONE',  #165 ) ;
#87 = EDGE_CURVE ( 'NONE', #30, #30, #237, .T. ) ;
#88 = CARTESIAN_POINT ( 'NONE',  ( 13.00000000000000178, 0.000000000000000000, 0.000000000000000000 ) ) ;
#89 = ORIENTED_EDGE ( 'NONE', *, *, #155, .T. ) ;
#90 =( NAMED_UNIT ( * ) PLANE_ANGLE_UNIT ( ) SI_UNIT ( $, .RADIAN. ) );
#91 = ORIENTED_EDGE ( 'NONE', *, *, #93, .T. ) ;
#92 = CARTESIAN_POINT ( 'NONE',  ( 2.445343973449862762, 0.2617992375929784621, -1.984984876921897401 ) ) ;
#93 = EDGE_CURVE ( 'NONE', #65, #65, #138, .T. ) ;
#94 = CARTESIAN_POINT ( 'NONE',  ( 2.500000000000000444, -0.1326938576183075424, -1.999999999999999556 ) ) ;
#95 = CIRCLE ( 'NONE', #8, 1.999999999999998668 ) ;
#96 = CARTESIAN_POINT ( 'NONE',  ( 0.000000000000000000, 0.000000000000000000, 0.000000000000000000 ) ) ;
#97 = CARTESIAN_POINT ( 'NONE',  ( 2.500000000000000000, -0.1326938576183071539, 1.999999999999998224 ) ) ;
#98 = CARTESIAN_POINT ( 'NONE',  ( 2.500000000000000444, 0.1326938576183075424, 1.999999999999999556 ) ) ;
#99 = DIRECTION ( 'NONE',  ( -1.000000000000000000, -0.000000000000000000, -0.000000000000000000 ) ) ;
#100 = FACE_BOUND ( 'NONE', #217, .T. ) ;
#101 = CARTESIAN_POINT ( 'NONE',  ( 1.553837594113024467, 0.2609631240577789946, -1.985133409034135488 ) ) ;
#102 = VERTEX_POINT ( 'NONE', #180 ) ;
#103 = ORIENTED_EDGE ( 'NONE', *, *, #111, .T. ) ;
#104 = APPLICATION_CONTEXT ( 'automotive_design' ) ;
#105 = CARTESIAN_POINT ( 'NONE',  ( 2.500000000000000000, 0.000000000000000000, 1.999999999999999112 ) ) ;
#106 = ORIENTED_EDGE ( 'NONE', *, *, #93, .F. ) ;
#107 = PRESENTATION_STYLE_ASSIGNMENT (( #145 ) ) ;
#108 = EDGE_LOOP ( 'NONE', ( #50 ) ) ;
#109 = EDGE_LOOP ( 'NONE', ( #220 ) ) ;
#110 = PRODUCT_DEFINITION ( 'UNKNOWN', '', #58, #77 ) ;
#111 = EDGE_CURVE ( 'NONE', #41, #41, #187, .T. ) ;
#112 = B_SPLINE_CURVE_WITH_KNOTS ( 'NONE', 3,
 ( #198, #52, #92, #195, #27, #234, #162, #101, #186, #144, #214, #69, #164, #29, #5, #231, #94, #160 ),
 .UNSPECIFIED., .T., .F.,
 ( 4, 2, 2, 2, 2, 2, 2, 2, 4 ),
 ( 0.000000000000000000, 0.0003923156643295052119, 0.0007846313286590104238, 0.001176946992988516395, 0.001569262657318022365, 0.001961578321647527903, 0.002353893985977034090, 0.002746209650306539844, 0.003138525314636046032 ),
 .UNSPECIFIED. ) ;
#113 = CARTESIAN_POINT ( 'NONE',  ( 2.261622501280932784, -0.4454478222147742472, 1.951993862720122763 ) ) ;
#114 = DIRECTION ( 'NONE',  ( 0.000000000000000000, 0.000000000000000000, 1.000000000000000000 ) ) ;
#115 = DIRECTION ( 'NONE',  ( 0.000000000000000000, 0.000000000000000000, -1.000000000000000000 ) ) ;
#116 = APPLICATION_CONTEXT ( 'automotive_design' ) ;
#117 =( LENGTH_UNIT ( ) NAMED_UNIT ( * ) SI_UNIT ( .MILLI., .METRE. ) );
#118 = CARTESIAN_POINT ( 'NONE',  ( 12.49999999999999645, 0.000000000000000000, 3.000000000000000888 ) ) ;
#119 = EDGE_CURVE ( 'NONE', #209, #209, #25, .T. ) ;
#120 = VERTEX_POINT ( 'NONE', #9 ) ;
#121 = SURFACE_STYLE_FILL_AREA ( #42 ) ;
#122 = AXIS2_PLACEMENT_3D ( 'NONE', #81, #60, #208 ) ;
#123 = ORIENTED_EDGE ( 'NONE', *, *, #87, .F. ) ;
#124 = EDGE_LOOP ( 'NONE', ( #68 ) ) ;
#125 = DIRECTION ( 'NONE',  ( 0.000000000000000000, 0.000000000000000000, -1.000000000000000000 ) ) ;
#126 = ORIENTED_EDGE ( 'NONE', *, *, #111, .F. ) ;
#127 = ORIENTED_EDGE ( 'NONE', *, *, #155, .F. ) ;
#128 = ORIENTED_EDGE ( 'NONE', *, *, #14, .F. ) ;
#129 = CARTESIAN_POINT ( 'NONE',  ( 12.49999999999999645, 0.000000000000000000, 0.000000000000000000 ) ) ;
#130 =( GEOMETRIC_REPRESENTATION_CONTEXT ( 3 ) GLOBAL_UNCERTAINTY_ASSIGNED_CONTEXT ( ( #150 ) ) GLOBAL_UNIT_ASSIGNED_CONTEXT ( ( #117, #37, #82 ) ) REPRESENTATION_CONTEXT ( 'NONE', 'WORKASPACE' ) );
#131 = CARTESIAN_POINT ( 'NONE',  ( 2.261476161884746094, 0.4455065951656356771, 1.951975199704166331 ) ) ;
#132 = AXIS2_PLACEMENT_3D ( 'NONE', #7, #216, #48 ) ;
#133 = SURFACE_SIDE_STYLE ('',( #3 ) ) ;
#134 = DIRECTION ( 'NONE',  ( 0.000000000000000000, 0.000000000000000000, 1.000000000000000000 ) ) ;
#135 = DIRECTION ( 'NONE',  ( -1.000000000000000000, -0.000000000000000000, -0.000000000000000000 ) ) ;
#136 =( NAMED_UNIT ( * ) SI_UNIT ( $, .STERADIAN. ) SOLID_ANGLE_UNIT ( ) );
#137 = FACE_BOUND ( 'NONE', #108, .T. ) ;
#138 = CIRCLE ( 'NONE', #171, 2.500000000000001776 ) ;
#139 = ORIENTED_EDGE ( 'NONE', *, *, #161, .T. ) ;
#140 = FACE_OUTER_BOUND ( 'NONE', #10, .T. ) ;
#141 = EDGE_LOOP ( 'NONE', ( #126 ) ) ;
#142 = FACE_OUTER_BOUND ( 'NONE', #177, .T. ) ;
#143 = EDGE_LOOP ( 'NONE', ( #127 ) ) ;
#144 = CARTESIAN_POINT ( 'NONE',  ( 1.499944692266457658, -0.1306117915533210050, -2.000013826932223182 ) ) ;
#145 = SURFACE_STYLE_USAGE ( .BOTH. , #193 ) ;
#146 = EDGE_CURVE ( 'NONE', #102, #102, #67, .T. ) ;
#147 = DIRECTION ( 'NONE',  ( 0.000000000000000000, 0.000000000000000000, 1.000000000000000000 ) ) ;
#148 = CARTESIAN_POINT ( 'NONE',  ( 2.131329443115315136, -0.4999172126883815737, 1.936513048691114847 ) ) ;
#149 = DIRECTION ( 'NONE',  ( -1.000000000000000000, -0.000000000000000000, -0.000000000000000000 ) ) ;
#150 = UNCERTAINTY_MEASURE_WITH_UNIT (LENGTH_MEASURE( 1.000000000000000082E-05 ), #117, 'distance_accuracy_value', 'NONE');
#151 = CARTESIAN_POINT ( 'NONE',  ( 1.739127198863649193, -0.4462152240479071996, 1.951857673502185309 ) ) ;
#152 = CARTESIAN_POINT ( 'NONE',  ( 1.079967007749232932E-16, 0.000000000000000000, 1.200000000000001288 ) ) ;
#153 = AXIS2_PLACEMENT_3D ( 'NONE', #175, #213, #156 ) ;
#154 = PLANE ( 'NONE',  #13 ) ;
#155 = EDGE_CURVE ( 'NONE', #120, #120, #95, .T. ) ;
#156 = DIRECTION ( 'NONE',  ( 0.000000000000000000, 0.000000000000000000, -1.000000000000000000 ) ) ;
#157 = EDGE_LOOP ( 'NONE', ( #11 ) ) ;
#158 = MECHANICAL_DESIGN_GEOMETRIC_PRESENTATION_REPRESENTATION (  '', ( #232 ), #130 ) ;
#159 = EDGE_LOOP ( 'NONE', ( #139 ) ) ;
#160 = CARTESIAN_POINT ( 'NONE',  ( 2.500000000000000444, 0.000000000000000000, -1.999999999999999112 ) ) ;
#161 = EDGE_CURVE ( 'NONE', #40, #40, #1, .T. ) ;
#162 = CARTESIAN_POINT ( 'NONE',  ( 1.739127198863649193, 0.4462152240479071996, -1.951857673502185309 ) ) ;
#163 = AXIS2_PLACEMENT_3D ( 'NONE', #228, #99, #6 ) ;
#164 = CARTESIAN_POINT ( 'NONE',  ( 1.867797984509063758, -0.4999305896153235507, -1.936509594785360999 ) ) ;
#165 = AXIS2_PLACEMENT_3D ( 'NONE', #62, #176, #64 ) ;
#166 = CARTESIAN_POINT ( 'NONE',  ( 2.500000000000000444, 0.000000000000000000, 1.999999999999999112 ) ) ;
#167 = MANIFOLD_SOLID_BREP ( 'Cut-Extrude1', #188 ) ;
#168 = ADVANCED_FACE ( 'NONE', ( #239 ), #15, .F. ) ;
#169 = UNCERTAINTY_MEASURE_WITH_UNIT (LENGTH_MEASURE( 1.000000000000000082E-05 ), #74, 'distance_accuracy_value', 'NONE');
#170 = CARTESIAN_POINT ( 'NONE',  ( 1.738335455097924864, 0.4455746387352811366, 1.951986750894311395 ) ) ;
#171 = AXIS2_PLACEMENT_3D ( 'NONE', #205, #204, #147 ) ;
#172 = CARTESIAN_POINT ( 'NONE',  ( 1.554049581596341101, 0.2610235948501354319, 1.985108490053509200 ) ) ;
#173 = CARTESIAN_POINT ( 'NONE',  ( 11.99999999999999822, 0.000000000000000000, 0.000000000000000000 ) ) ;
#174 = CARTESIAN_POINT ( 'NONE',  ( 11.99999999999999822, 0.000000000000000000, 3.000000000000000444 ) ) ;
#175 = CARTESIAN_POINT ( 'NONE',  ( 0.7999999999999999334, 0.000000000000000000, 0.000000000000000000 ) ) ;
#176 = DIRECTION ( 'NONE',  ( -1.000000000000000000, 0.000000000000000000, -0.000000000000000000 ) ) ;
#177 = EDGE_LOOP ( 'NONE', ( #182 ) ) ;
#178 = CARTESIAN_POINT ( 'NONE',  ( 12.00000000000000000, 3.000000000000000444, 0.000000000000000000 ) ) ;
#179 = CYLINDRICAL_SURFACE ( 'NONE', #132, 0.5000000000000000000 ) ;
#180 = CARTESIAN_POINT ( 'NONE',  ( 12.00000000000000000, 0.000000000000000000, 2.000000000000000000 ) ) ;
#181 = AXIS2_PLACEMENT_3D ( 'NONE', #88, #135, #229 ) ;
#182 = ORIENTED_EDGE ( 'NONE', *, *, #119, .T. ) ;
#183 = PRODUCT ( '76.04.03.0001', '76.04.03.0001', '', ( #233 ) ) ;
#184 = CYLINDRICAL_SURFACE ( 'NONE', #212, 3.000000000000000888 ) ;
#185 = PRODUCT_DEFINITION_SHAPE ( 'NONE', 'NONE',  #110 ) ;
#186 = CARTESIAN_POINT ( 'NONE',  ( 1.500055397243994726, 0.1310349001617353293, -1.999986150690163056 ) ) ;
#187 = CIRCLE ( 'NONE', #78, 3.000000000000000444 ) ;
#188 = CLOSED_SHELL ( 'NONE', ( #238, #203, #80, #241, #200, #206, #168, #22 ) ) ;
#189 = DIRECTION ( 'NONE',  ( 0.000000000000000000, 0.000000000000000000, 1.000000000000000000 ) ) ;
#190 = DIRECTION ( 'NONE',  ( -1.000000000000000000, -0.000000000000000000, -0.000000000000000000 ) ) ;
#191 = FACE_BOUND ( 'NONE', #124, .T. ) ;
#192 = CARTESIAN_POINT ( 'NONE',  ( 2.445343973449862762, -0.2617992375929784621, 1.984984876921897401 ) ) ;
#193 = SURFACE_SIDE_STYLE ('',( #121 ) ) ;
#194 = FACE_BOUND ( 'NONE', #157, .T. ) ;
#195 = CARTESIAN_POINT ( 'NONE',  ( 2.261622501280932784, 0.4454478222147742472, -1.951993862720122763 ) ) ;
#196 = FACE_OUTER_BOUND ( 'NONE', #199, .T. ) ;
#197 =( GEOMETRIC_REPRESENTATION_CONTEXT ( 3 ) GLOBAL_UNCERTAINTY_ASSIGNED_CONTEXT ( ( #169 ) ) GLOBAL_UNIT_ASSIGNED_CONTEXT ( ( #74, #201, #70 ) ) REPRESENTATION_CONTEXT ( 'NONE', 'WORKASPACE' ) );
#198 = CARTESIAN_POINT ( 'NONE',  ( 2.500000000000000444, 0.000000000000000000, -1.999999999999999112 ) ) ;
#199 = EDGE_LOOP ( 'NONE', ( #72 ) ) ;
#200 = ADVANCED_FACE ( 'NONE', ( #191, #20, #26, #196 ), #47, .T. ) ;
#201 =( NAMED_UNIT ( * ) PLANE_ANGLE_UNIT ( ) SI_UNIT ( $, .RADIAN. ) );
#202 = AXIS2_PLACEMENT_3D ( 'NONE', #19, #61, #59 ) ;
#203 = ADVANCED_FACE ( 'NONE', ( #227, #100 ), #218, .T. ) ;
#204 = DIRECTION ( 'NONE',  ( -1.000000000000000000, -0.000000000000000000, -0.000000000000000000 ) ) ;
#205 = CARTESIAN_POINT ( 'NONE',  ( 13.00000000000000178, 0.000000000000000000, 0.000000000000000000 ) ) ;
#206 = ADVANCED_FACE ( 'NONE', ( #137, #83 ), #54, .T. ) ;
#207 = DIRECTION ( 'NONE',  ( 1.000000000000000000, 0.000000000000000000, 0.000000000000000000 ) ) ;
#208 = DIRECTION ( 'NONE',  ( 0.000000000000000000, 0.000000000000000000, 1.000000000000000000 ) ) ;
#209 = VERTEX_POINT ( 'NONE', #118 ) ;
#210 = APPLICATION_PROTOCOL_DEFINITION ( 'draft international standard', 'automotive_design', 1998, #104 ) ;
#211 = APPLICATION_PROTOCOL_DEFINITION ( 'draft international standard', 'automotive_design', 1998, #116 ) ;
#212 = AXIS2_PLACEMENT_3D ( 'NONE', #96, #149, #36 ) ;
#213 = DIRECTION ( 'NONE',  ( 1.000000000000000000, 0.000000000000000000, 0.000000000000000000 ) ) ;
#214 = CARTESIAN_POINT ( 'NONE',  ( 1.554049581596341101, -0.2610235948501354319, -1.985108490053509200 ) ) ;
#215 = FACE_OUTER_BOUND ( 'NONE', #34, .T. ) ;
#216 = DIRECTION ( 'NONE',  ( -0.000000000000000000, -0.000000000000000000, 1.000000000000000000 ) ) ;
#217 = EDGE_LOOP ( 'NONE', ( #91 ) ) ;
#218 = CONICAL_SURFACE ( 'NONE', #181, 2.500000000000001776, 0.7853981633974435050 ) ;
#219 = AXIS2_PLACEMENT_3D ( 'NONE', #49, #33, #55 ) ;
#220 = ORIENTED_EDGE ( 'NONE', *, *, #14, .T. ) ;
#221 = FILL_AREA_STYLE_COLOUR ( '', #32 ) ;
#222 = DIRECTION ( 'NONE',  ( -1.000000000000000000, -0.000000000000000000, -0.000000000000000000 ) ) ;
#223 = DIRECTION ( 'NONE',  ( -1.000000000000000000, -0.000000000000000000, -0.000000000000000000 ) ) ;
#224 = AXIS2_PLACEMENT_3D ( 'NONE', #129, #223, #134 ) ;
#225 = CARTESIAN_POINT ( 'NONE',  ( 0.7999999999999999334, 0.000000000000000000, 0.000000000000000000 ) ) ;
#226 = CARTESIAN_POINT ( 'NONE',  ( 1.867797984509063758, 0.4999305896153235507, 1.936509594785360999 ) ) ;
#227 = FACE_OUTER_BOUND ( 'NONE', #73, .T. ) ;
#228 = CARTESIAN_POINT ( 'NONE',  ( 0.000000000000000000, 0.000000000000000000, 0.000000000000000000 ) ) ;
#229 = DIRECTION ( 'NONE',  ( 0.000000000000000000, 0.000000000000000000, 1.000000000000000000 ) ) ;
#230 = DIRECTION ( 'NONE',  ( 1.000000000000000000, 0.000000000000000000, 0.000000000000000000 ) ) ;
#231 = CARTESIAN_POINT ( 'NONE',  ( 2.445153297395840752, -0.2620771859351073707, -1.984943035759094254 ) ) ;
#232 = STYLED_ITEM ( 'NONE', ( #240 ), #167 ) ;
#233 = PRODUCT_CONTEXT ( 'NONE', #116, 'mechanical' ) ;
#234 = CARTESIAN_POINT ( 'NONE',  ( 1.869301693944821263, 0.5000825881446044896, -1.936470348940997344 ) ) ;
#235 = FACE_OUTER_BOUND ( 'NONE', #12, .T. ) ;
#236 = EDGE_LOOP ( 'NONE', ( #123 ) ) ;
#237 = B_SPLINE_CURVE_WITH_KNOTS ( 'NONE', 3,
 ( #166, #97, #192, #113, #148, #38, #151, #79, #53, #56, #172, #170, #226, #2, #131, #242, #98, #35 ),
 .UNSPECIFIED., .T., .F.,
 ( 4, 2, 2, 2, 2, 2, 2, 2, 4 ),
 ( 0.000000000000000000, 0.0003923156643295052119, 0.0007846313286590104238, 0.001176946992988516395, 0.001569262657318022365, 0.001961578321647527903, 0.002353893985977034090, 0.002746209650306539844, 0.003138525314636046032 ),
 .UNSPECIFIED. ) ;
#238 = ADVANCED_FACE ( 'NONE', ( #215 ), #86, .F. ) ;
#239 = FACE_OUTER_BOUND ( 'NONE', #159, .T. ) ;
#240 = PRESENTATION_STYLE_ASSIGNMENT (( #39 ) ) ;
#241 = ADVANCED_FACE ( 'NONE', ( #194, #140 ), #154, .F. ) ;
#242 = CARTESIAN_POINT ( 'NONE',  ( 2.445153297395840752, 0.2620771859351073707, 1.984943035759094254 ) ) ;
ENDSEC;
END-ISO-10303-21;
