ISO-10303-21;
HEADER;
FILE_DESCRIPTION (( 'STEP AP214' ),
    '1' );
FILE_NAME ('76.04.02.0008.step',
    '2021-04-02T18:00:12',
    ( '' ),
    ( '' ),
    'SwSTEP 2.0',
    'SolidWorks 2021',
    '' );
FILE_SCHEMA (( 'AUTOMOTIVE_DESIGN' ));
ENDSEC;

DATA;
#1 = CARTESIAN_POINT ( 'NONE',  ( 5.579226401574767458, 1.589529472592653425, 7.840845692126979571 ) ) ;
#2 = FACE_OUTER_BOUND ( 'NONE', #264, .T. ) ;
#3 = B_SPLINE_CURVE_WITH_KNOTS ( 'NONE', 3,
 ( #32, #75, #204, #257, #54, #249, #9, #231, #128, #104, #175, #154, #228, #207, #27, #232, #35, #177, #280, #78, #129, #278, #5, #125, #298, #150, #77, #56, #4, #79, #181, #203, #295, #180, #97, #147, #1, #277, #279, #179, #8, #153, #152, #127, #200, #251, #256, #255, #103, #101, #299, #57, #30, #233 ),
 .UNSPECIFIED., .T., .F.,
 ( 4, 2, 2, 2, 2, 2, 2, 2, 2, 2, 2, 2, 2, 2, 2, 2, 2, 2, 2, 2, 2, 2, 2, 2, 2, 2, 4 ),
 ( 0.000000000000000000, 0.0003923156643295058082, 0.0007846313286590118332, 0.001176946992988517912, 0.001569262657318023883, 0.002353893985977036692, 0.002746209650306543314, 0.003138525314636049501, 0.003530840978965555689, 0.003923156643295062744, 0.004707787971954075119, 0.005100103636283582174, 0.005492419300613088362, 0.005884734964942594550, 0.006277050629272099870, 0.007061681957931113113, 0.007453997622260618433, 0.007846313286590125488, 0.008238628950919630808, 0.008630944615249136129, 0.009415575943908145035, 0.009807891608237650355, 0.01020020727256715394, 0.01098483860122616285, 0.01176946992988517175, 0.01216178559421467707, 0.01255410125854418066 ),
 .UNSPECIFIED. ) ;
#4 = CARTESIAN_POINT ( 'NONE',  ( 4.800055531509661577, -0.1316695630743572043, 7.999986117123743412 ) ) ;
#5 = CARTESIAN_POINT ( 'NONE',  ( 5.210898111231249352, -1.221342559348626899, 7.906973638967773610 ) ) ;
#6 = CARTESIAN_POINT ( 'NONE',  ( 48.50000000000000000, 0.000000000000000000, 8.500000000000015987 ) ) ;
#7 = AXIS2_PLACEMENT_3D ( 'NONE', #163, #159, #286 ) ;
#8 = CARTESIAN_POINT ( 'NONE',  ( 6.535070414041910247, 1.999861041126618000, 7.746002571436383377 ) ) ;
#9 = CARTESIAN_POINT ( 'NONE',  ( 8.535031877734535755, -1.003346023807034193, 7.937587895696920803 ) ) ;
#10 = CARTESIAN_POINT ( 'NONE',  ( 47.00000000000000000, 0.000000000000000000, 10.00000000000000533 ) ) ;
#11 = CARTESIAN_POINT ( 'NONE',  ( 5.066076548552961079, 1.005202429705906120, -7.937347028442240493 ) ) ;
#12 = CARTESIAN_POINT ( 'NONE',  ( 4.813213011944564634, 0.2644367505942603613, -7.996667802653983692 ) ) ;
#13 = ADVANCED_FACE ( 'NONE', ( #166, #48 ), #313, .T. ) ;
#14 = CARTESIAN_POINT ( 'NONE',  ( 5.476913010139475624, -1.505471989113274178, -7.857629612316067380 ) ) ;
#15 = SURFACE_SIDE_STYLE ('',( #135 ) ) ;
#16 = SURFACE_STYLE_USAGE ( .BOTH. , #15 ) ;
#17 = AXIS2_PLACEMENT_3D ( 'NONE', #169, #51, #247 ) ;
#18 = EDGE_LOOP ( 'NONE', ( #266 ) ) ;
#19 = ORIENTED_EDGE ( 'NONE', *, *, #168, .F. ) ;
#20 = DIRECTION ( 'NONE',  ( 0.000000000000000000, 0.000000000000000000, -1.000000000000000000 ) ) ;
#21 = PRODUCT_DEFINITION_CONTEXT ( 'detailed design', #213, 'design' ) ;
#22 = COLOUR_RGB ( '',0.7764705882352941346, 0.7568627450980391913, 0.7372549019607843590 ) ;
#23 = CARTESIAN_POINT ( 'NONE',  ( 45.00000000000000000, 0.000000000000000000, 8.000000000000003553 ) ) ;
#24 = FACE_BOUND ( 'NONE', #171, .T. ) ;
#25 = PLANE ( 'NONE',  #155 ) ;
#26 = CARTESIAN_POINT ( 'NONE',  ( 8.786922371444441993, -0.2634687029185876495, -7.996701549926656050 ) ) ;
#27 = CARTESIAN_POINT ( 'NONE',  ( 6.932276148705512675, -1.999916913937860308, 7.745988145139289571 ) ) ;
#28 = FILL_AREA_STYLE_COLOUR ( '', #246 ) ;
#29 = DIRECTION ( 'NONE',  ( 1.000000000000000000, 0.000000000000000000, 0.000000000000000000 ) ) ;
#30 = CARTESIAN_POINT ( 'NONE',  ( 8.799999999999997158, 0.1326938576183066543, 8.000000000000005329 ) ) ;
#31 = VERTEX_POINT ( 'NONE', #253 ) ;
#32 = CARTESIAN_POINT ( 'NONE',  ( 8.799999999999995381, -4.065758146820641628E-17, 8.000000000000003553 ) ) ;
#33 = DIRECTION ( 'NONE',  ( -1.000000000000000000, -0.000000000000000000, -0.000000000000000000 ) ) ;
#34 = PRODUCT_DEFINITION ( 'UNKNOWN', '', #304, #21 ) ;
#35 = CARTESIAN_POINT ( 'NONE',  ( 6.537119866481361008, -1.986970918883058435, 7.749364203984911548 ) ) ;
#36 = CARTESIAN_POINT ( 'NONE',  ( 8.030211477292654720, 1.598142704237302203, -7.840966465082273906 ) ) ;
#37 = APPLICATION_CONTEXT ( 'automotive_design' ) ;
#38 =( NAMED_UNIT ( * ) PLANE_ANGLE_UNIT ( ) SI_UNIT ( $, .RADIAN. ) );
#39 = AXIS2_PLACEMENT_3D ( 'NONE', #52, #244, #223 ) ;
#40 = FILL_AREA_STYLE ('',( #297 ) ) ;
#41 = ADVANCED_FACE ( 'NONE', ( #273, #240 ), #25, .F. ) ;
#42 = STYLED_ITEM ( 'NONE', ( #81 ), #106 ) ;
#43 = SURFACE_STYLE_FILL_AREA ( #306 ) ;
#44 = EDGE_CURVE ( 'NONE', #245, #245, #219, .T. ) ;
#45 = DIRECTION ( 'NONE',  ( -1.000000000000000000, -0.000000000000000000, -0.000000000000000000 ) ) ;
#46 = DIRECTION ( 'NONE',  ( -1.000000000000000000, -0.000000000000000000, -0.000000000000000000 ) ) ;
#47 = CARTESIAN_POINT ( 'NONE',  ( 7.061063984271864769, -1.987208484000324571, -7.749302850484569127 ) ) ;
#48 = FACE_OUTER_BOUND ( 'NONE', #90, .T. ) ;
#49 =( LENGTH_UNIT ( ) NAMED_UNIT ( * ) SI_UNIT ( .MILLI., .METRE. ) );
#50 = CARTESIAN_POINT ( 'NONE',  ( 8.545959015022969396, -1.009770071519058510, -7.939701385896899666 ) ) ;
#51 = DIRECTION ( 'NONE',  ( 1.000000000000000000, 0.000000000000000000, 0.000000000000000000 ) ) ;
#52 = CARTESIAN_POINT ( 'NONE',  ( 0.000000000000000000, 0.000000000000000000, 0.000000000000000000 ) ) ;
#53 = DIRECTION ( 'NONE',  ( -1.000000000000000000, -0.000000000000000000, -0.000000000000000000 ) ) ;
#54 = CARTESIAN_POINT ( 'NONE',  ( 8.697085019606278777, -0.6467101618175001843, 7.974743786963693459 ) ) ;
#55 = ADVANCED_FACE ( 'NONE', ( #92 ), #197, .F. ) ;
#56 = CARTESIAN_POINT ( 'NONE',  ( 4.813213011944564634, -0.2644367505942603613, 7.996667802653983692 ) ) ;
#57 = CARTESIAN_POINT ( 'NONE',  ( 8.786922371444441993, 0.2634687029185876495, 7.996701549926656050 ) ) ;
#58 = CONICAL_SURFACE ( 'NONE', #94, 8.500000000000015987, 0.7853981633974442822 ) ;
#59 = CARTESIAN_POINT ( 'NONE',  ( 8.799999999999995381, 4.065758146820641628E-17, -8.000000000000003553 ) ) ;
#60 = CARTESIAN_POINT ( 'NONE',  ( 7.320786906153032625, 1.935494469010187402, -7.762381666036874961 ) ) ;
#61 = PRODUCT ( '76.04.02.0008', '76.04.02.0008', '', ( #117 ) ) ;
#62 = CARTESIAN_POINT ( 'NONE',  ( 5.791080246480674987, 1.746758766470990043, -7.807659208723350730 ) ) ;
#63 = CARTESIAN_POINT ( 'NONE',  ( 5.293284783578028119, 1.321730646216308980, -7.890620032838621789 ) ) ;
#64 = CARTESIAN_POINT ( 'NONE',  ( 8.696373323343484785, -0.6486681265331759594, -7.974575417240541420 ) ) ;
#65 = CARTESIAN_POINT ( 'NONE',  ( 45.00000000000000000, 10.00000000000000533, 0.000000000000000000 ) ) ;
#66 = ORIENTED_EDGE ( 'NONE', *, *, #84, .T. ) ;
#67 = EDGE_LOOP ( 'NONE', ( #308 ) ) ;
#68 = SURFACE_STYLE_USAGE ( .BOTH. , #122 ) ;
#69 = CARTESIAN_POINT ( 'NONE',  ( 8.029581783050074861, -1.598596971432013403, -7.840868634871601905 ) ) ;
#70 = ORIENTED_EDGE ( 'NONE', *, *, #158, .T. ) ;
#71 = FACE_OUTER_BOUND ( 'NONE', #190, .T. ) ;
#72 =( NAMED_UNIT ( * ) PLANE_ANGLE_UNIT ( ) SI_UNIT ( $, .RADIAN. ) );
#73 = FACE_OUTER_BOUND ( 'NONE', #67, .T. ) ;
#74 = FACE_OUTER_BOUND ( 'NONE', #18, .T. ) ;
#75 = CARTESIAN_POINT ( 'NONE',  ( 8.799999999999991829, -0.1326938576183072371, 8.000000000000001776 ) ) ;
#76 = ADVANCED_FACE ( 'NONE', ( #241, #24, #293, #71 ), #114, .T. ) ;
#77 = CARTESIAN_POINT ( 'NONE',  ( 4.864855936035986872, -0.5219835080499038993, 7.983993734866757563 ) ) ;
#78 = CARTESIAN_POINT ( 'NONE',  ( 5.791080246480674987, -1.746758766470990043, 7.807659208723350730 ) ) ;
#79 = CARTESIAN_POINT ( 'NONE',  ( 4.799889474043357751, 0.2608004744982262424, 8.000027631486839041 ) ) ;
#80 =( GEOMETRIC_REPRESENTATION_CONTEXT ( 3 ) GLOBAL_UNCERTAINTY_ASSIGNED_CONTEXT ( ( #267 ) ) GLOBAL_UNIT_ASSIGNED_CONTEXT ( ( #49, #72, #221 ) ) REPRESENTATION_CONTEXT ( 'NONE', 'WORKASPACE' ) );
#81 = PRESENTATION_STYLE_ASSIGNMENT (( #16 ) ) ;
#82 = CARTESIAN_POINT ( 'NONE',  ( 4.852587021635680564, -0.5249963432426962839, -7.986424433487821162 ) ) ;
#83 =( LENGTH_UNIT ( ) NAMED_UNIT ( * ) SI_UNIT ( .MILLI., .METRE. ) );
#84 = EDGE_CURVE ( 'NONE', #118, #118, #3, .T. ) ;
#85 = CARTESIAN_POINT ( 'NONE',  ( 8.786926025712789468, 0.2630676426233926612, -7.996703123718819306 ) ) ;
#86 = AXIS2_PLACEMENT_3D ( 'NONE', #176, #288, #165 ) ;
#87 = EDGE_LOOP ( 'NONE', ( #145 ) ) ;
#88 = ORIENTED_EDGE ( 'NONE', *, *, #124, .F. ) ;
#89 = EDGE_LOOP ( 'NONE', ( #119 ) ) ;
#90 = EDGE_LOOP ( 'NONE', ( #70 ) ) ;
#91 = CARTESIAN_POINT ( 'NONE',  ( 8.799999999999997158, -0.1326938576183066543, -8.000000000000005329 ) ) ;
#92 = FACE_OUTER_BOUND ( 'NONE', #87, .T. ) ;
#93 =( LENGTH_UNIT ( ) NAMED_UNIT ( * ) SI_UNIT ( .MILLI., .METRE. ) );
#94 = AXIS2_PLACEMENT_3D ( 'NONE', #208, #53, #98 ) ;
#95 = MECHANICAL_DESIGN_GEOMETRIC_PRESENTATION_REPRESENTATION (  '', ( #284 ), #80 ) ;
#96 = CARTESIAN_POINT ( 'NONE',  ( 7.445645835363753129, -1.897418820108304871, -7.771901101503600806 ) ) ;
#97 = CARTESIAN_POINT ( 'NONE',  ( 5.292627136637890750, 1.320920945228129861, 7.890751351475262076 ) ) ;
#98 = DIRECTION ( 'NONE',  ( 0.000000000000000000, 0.000000000000000000, 1.000000000000000000 ) ) ;
#99 = ADVANCED_FACE ( 'NONE', ( #73, #275 ), #58, .T. ) ;
#100 = FACE_OUTER_BOUND ( 'NONE', #113, .T. ) ;
#101 = CARTESIAN_POINT ( 'NONE',  ( 8.696373323343484785, 0.6486681265331759594, 7.974575417240541420 ) ) ;
#102 = AXIS2_PLACEMENT_3D ( 'NONE', #248, #289, #121 ) ;
#103 = CARTESIAN_POINT ( 'NONE',  ( 8.545959015022969396, 1.009770071519058510, 7.939701385896899666 ) ) ;
#104 = CARTESIAN_POINT ( 'NONE',  ( 8.030211477292654720, -1.598142704237302203, 7.840966465082273906 ) ) ;
#105 = CARTESIAN_POINT ( 'NONE',  ( 7.807974722533955969, 1.746929224812576287, -7.807610581511102765 ) ) ;
#106 = MANIFOLD_SOLID_BREP ( 'Cut-Extrude1', #111 ) ;
#107 = CIRCLE ( 'NONE', #185, 6.500000000000005329 ) ;
#108 = CARTESIAN_POINT ( 'NONE',  ( 4.800055531509661577, 0.1316695630743572043, -7.999986117123743412 ) ) ;
#109 = CARTESIAN_POINT ( 'NONE',  ( 5.002431116384973286, -0.8864286355026947950, -7.951659787253108291 ) ) ;
#110 = DIRECTION ( 'NONE',  ( 0.000000000000000000, 0.000000000000000000, 1.000000000000000000 ) ) ;
#111 = CLOSED_SHELL ( 'NONE', ( #272, #99, #13, #41, #76, #218, #55, #191 ) ) ;
#112 = CARTESIAN_POINT ( 'NONE',  ( 8.735796328908492114, 0.5193959850005185341, -7.984152631573065761 ) ) ;
#113 = EDGE_LOOP ( 'NONE', ( #291 ) ) ;
#114 = CYLINDRICAL_SURFACE ( 'NONE', #161, 8.000000000000001776 ) ;
#115 = ORIENTED_EDGE ( 'NONE', *, *, #215, .F. ) ;
#116 = CONICAL_SURFACE ( 'NONE', #239, 8.000000000000000000, 0.7853981633974465026 ) ;
#117 = PRODUCT_CONTEXT ( 'NONE', #37, 'mechanical' ) ;
#118 = VERTEX_POINT ( 'NONE', #254 ) ;
#119 = ORIENTED_EDGE ( 'NONE', *, *, #124, .T. ) ;
#120 = CARTESIAN_POINT ( 'NONE',  ( 6.930888128050419539, -2.000069065124613132, -7.745948859878972748 ) ) ;
#121 = DIRECTION ( 'NONE',  ( 0.000000000000000000, 0.000000000000000000, 1.000000000000000000 ) ) ;
#122 = SURFACE_SIDE_STYLE ('',( #43 ) ) ;
#123 = CARTESIAN_POINT ( 'NONE',  ( 0.000000000000000000, 0.000000000000000000, 0.000000000000000000 ) ) ;
#124 = EDGE_CURVE ( 'NONE', #31, #31, #138, .T. ) ;
#125 = CARTESIAN_POINT ( 'NONE',  ( 5.066076548552961079, -1.005202429705906120, 7.937347028442240493 ) ) ;
#126 = CARTESIAN_POINT ( 'NONE',  ( 5.909847954400285985, -1.795824432500143120, -7.796006770207849712 ) ) ;
#127 = CARTESIAN_POINT ( 'NONE',  ( 7.317979211385751803, 1.936194592322518337, 7.762206047772254536 ) ) ;
#128 = CARTESIAN_POINT ( 'NONE',  ( 8.305793685546051464, -1.322669827304608248, 7.890452986384936196 ) ) ;
#129 = CARTESIAN_POINT ( 'NONE',  ( 5.571219190703965651, -1.599608796201501759, 7.840706429540704292 ) ) ;
#130 =( NAMED_UNIT ( * ) SI_UNIT ( $, .STERADIAN. ) SOLID_ANGLE_UNIT ( ) );
#131 = DIRECTION ( 'NONE',  ( -1.000000000000000000, -0.000000000000000000, -0.000000000000000000 ) ) ;
#132 =( GEOMETRIC_REPRESENTATION_CONTEXT ( 3 ) GLOBAL_UNCERTAINTY_ASSIGNED_CONTEXT ( ( #151 ) ) GLOBAL_UNIT_ASSIGNED_CONTEXT ( ( #83, #38, #130 ) ) REPRESENTATION_CONTEXT ( 'NONE', 'WORKASPACE' ) );
#133 = CARTESIAN_POINT ( 'NONE',  ( 5.210256716546072475, -1.220563788315647491, -7.907100741945479072 ) ) ;
#134 = VERTEX_POINT ( 'NONE', #265 ) ;
#135 = SURFACE_STYLE_FILL_AREA ( #40 ) ;
#136 = VERTEX_POINT ( 'NONE', #10 ) ;
#137 = CARTESIAN_POINT ( 'NONE',  ( -6.178381390562178934E-16, 0.000000000000000000, 6.500000000000005329 ) ) ;
#138 = CIRCLE ( 'NONE', #210, 10.00000000000000533 ) ;
#139 = CARTESIAN_POINT ( 'NONE',  ( 0.000000000000000000, 0.000000000000000000, 0.000000000000000000 ) ) ;
#140 = EDGE_LOOP ( 'NONE', ( #167 ) ) ;
#141 = DIRECTION ( 'NONE',  ( 0.000000000000000000, 0.000000000000000000, 1.000000000000000000 ) ) ;
#142 = B_SPLINE_CURVE_WITH_KNOTS ( 'NONE', 3,
 ( #59, #214, #85, #112, #156, #182, #281, #258, #302, #36, #105, #184, #60, #235, #282, #262, #216, #186, #259, #62, #187, #63, #164, #11, #209, #301, #237, #12, #108, #260, #82, #109, #211, #133, #183, #14, #212, #303, #126, #311, #296, #120, #47, #276, #96, #146, #69, #270, #50, #64, #199, #26, #91, #294 ),
 .UNSPECIFIED., .T., .F.,
 ( 4, 2, 2, 2, 2, 2, 2, 2, 2, 2, 2, 2, 2, 2, 2, 2, 2, 2, 2, 2, 2, 2, 2, 2, 2, 2, 4 ),
 ( 0.000000000000000000, 0.0003923156643295058082, 0.0007846313286590118332, 0.001176946992988517912, 0.001569262657318023883, 0.002353893985977036692, 0.002746209650306543314, 0.003138525314636049501, 0.003530840978965555689, 0.003923156643295062744, 0.004707787971954075119, 0.005100103636283582174, 0.005492419300613088362, 0.005884734964942594550, 0.006277050629272099870, 0.007061681957931113113, 0.007453997622260618433, 0.007846313286590125488, 0.008238628950919630808, 0.008630944615249136129, 0.009415575943908145035, 0.009807891608237650355, 0.01020020727256715394, 0.01098483860122616285, 0.01176946992988517175, 0.01216178559421467707, 0.01255410125854418066 ),
 .UNSPECIFIED. ) ;
#143 = EDGE_LOOP ( 'NONE', ( #217 ) ) ;
#144 = EDGE_CURVE ( 'NONE', #230, #230, #252, .T. ) ;
#145 = ORIENTED_EDGE ( 'NONE', *, *, #215, .T. ) ;
#146 = CARTESIAN_POINT ( 'NONE',  ( 7.807551461386198710, -1.747302763448159713, -7.807529231111637102 ) ) ;
#147 = CARTESIAN_POINT ( 'NONE',  ( 5.476913010139475624, 1.505471989113274178, 7.857629612316067380 ) ) ;
#148 =( NAMED_UNIT ( * ) PLANE_ANGLE_UNIT ( ) SI_UNIT ( $, .RADIAN. ) );
#149 = DIRECTION ( 'NONE',  ( -0.000000000000000000, -0.000000000000000000, 1.000000000000000000 ) ) ;
#150 = CARTESIAN_POINT ( 'NONE',  ( 4.902923892400390393, -0.6466718616380381368, 7.974742522495203545 ) ) ;
#151 = UNCERTAINTY_MEASURE_WITH_UNIT (LENGTH_MEASURE( 1.000000000000000082E-05 ), #83, 'distance_accuracy_value', 'NONE');
#152 = CARTESIAN_POINT ( 'NONE',  ( 7.061063984271864769, 1.987208484000324571, 7.749302850484569127 ) ) ;
#153 = CARTESIAN_POINT ( 'NONE',  ( 6.930888128050419539, 2.000069065124613132, 7.745948859878972748 ) ) ;
#154 = CARTESIAN_POINT ( 'NONE',  ( 7.447375157614360752, -1.896799698109078891, 7.772051664940886617 ) ) ;
#155 = AXIS2_PLACEMENT_3D ( 'NONE', #65, #271, #20 ) ;
#156 = CARTESIAN_POINT ( 'NONE',  ( 8.697085019606278777, 0.6467101618175001843, -7.974743786963693459 ) ) ;
#157 = DIRECTION ( 'NONE',  ( 0.000000000000000000, 0.000000000000000000, 1.000000000000000000 ) ) ;
#158 = EDGE_CURVE ( 'NONE', #136, #136, #178, .T. ) ;
#159 = DIRECTION ( 'NONE',  ( -1.000000000000000000, -0.000000000000000000, -0.000000000000000000 ) ) ;
#160 = VERTEX_POINT ( 'NONE', #137 ) ;
#161 = AXIS2_PLACEMENT_3D ( 'NONE', #123, #33, #225 ) ;
#162 = CIRCLE ( 'NONE', #198, 8.000000000000000000 ) ;
#163 = CARTESIAN_POINT ( 'NONE',  ( 48.50000000000000000, 0.000000000000000000, 0.000000000000000000 ) ) ;
#164 = CARTESIAN_POINT ( 'NONE',  ( 5.210898111231249352, 1.221342559348626899, -7.906973638967773610 ) ) ;
#165 = DIRECTION ( 'NONE',  ( -0.000000000000000000, 0.000000000000000000, 1.000000000000000000 ) ) ;
#166 = FACE_OUTER_BOUND ( 'NONE', #194, .T. ) ;
#167 = ORIENTED_EDGE ( 'NONE', *, *, #310, .F. ) ;
#168 = EDGE_CURVE ( 'NONE', #287, #287, #142, .T. ) ;
#169 = CARTESIAN_POINT ( 'NONE',  ( -3.089190695281089467E-16, 6.500000000000005329, 0.000000000000000000 ) ) ;
#170 = PLANE ( 'NONE',  #86 ) ;
#171 = EDGE_LOOP ( 'NONE', ( #268 ) ) ;
#172 = DIRECTION ( 'NONE',  ( -1.000000000000000000, -0.000000000000000000, -0.000000000000000000 ) ) ;
#173 = EDGE_LOOP ( 'NONE', ( #66 ) ) ;
#174 = CYLINDRICAL_SURFACE ( 'NONE', #206, 2.000000000000000000 ) ;
#175 = CARTESIAN_POINT ( 'NONE',  ( 7.807974722533955969, -1.746929224812576287, 7.807610581511102765 ) ) ;
#176 = CARTESIAN_POINT ( 'NONE',  ( 48.50000000000000000, 0.000000000000000000, 0.000000000000000000 ) ) ;
#177 = CARTESIAN_POINT ( 'NONE',  ( 6.280196427791076452, -1.935707530440641255, 7.762327959773736907 ) ) ;
#178 = CIRCLE ( 'NONE', #307, 10.00000000000000533 ) ;
#179 = CARTESIAN_POINT ( 'NONE',  ( 6.274731165233891517, 1.947695273348126532, 7.759981374729036929 ) ) ;
#180 = CARTESIAN_POINT ( 'NONE',  ( 5.210256716546072475, 1.220563788315647491, 7.907100741945479072 ) ) ;
#181 = CARTESIAN_POINT ( 'NONE',  ( 4.852587021635680564, 0.5249963432426962839, 7.986424433487821162 ) ) ;
#182 = CARTESIAN_POINT ( 'NONE',  ( 8.596503950012493789, 0.8886726971174979672, -7.951417064807503543 ) ) ;
#183 = CARTESIAN_POINT ( 'NONE',  ( 5.292627136637890750, -1.320920945228129861, -7.890751351475262076 ) ) ;
#184 = CARTESIAN_POINT ( 'NONE',  ( 7.447375157614360752, 1.896799698109078891, -7.772051664940886617 ) ) ;
#185 = AXIS2_PLACEMENT_3D ( 'NONE', #274, #172, #202 ) ;
#186 = CARTESIAN_POINT ( 'NONE',  ( 6.280196427791076452, 1.935707530440641255, -7.762327959773736907 ) ) ;
#187 = CARTESIAN_POINT ( 'NONE',  ( 5.571219190703965651, 1.599608796201501759, -7.840706429540704292 ) ) ;
#188 = ORIENTED_EDGE ( 'NONE', *, *, #44, .F. ) ;
#189 = ADVANCED_BREP_SHAPE_REPRESENTATION ( '76.04.02.0008', ( #106, #39 ), #226 ) ;
#190 = EDGE_LOOP ( 'NONE', ( #243 ) ) ;
#191 = ADVANCED_FACE ( 'NONE', ( #229, #100 ), #174, .F. ) ;
#192 = ORIENTED_EDGE ( 'NONE', *, *, #144, .F. ) ;
#193 = CARTESIAN_POINT ( 'NONE',  ( 1.499999999999999112, 0.000000000000000000, 0.000000000000000000 ) ) ;
#194 = EDGE_LOOP ( 'NONE', ( #88 ) ) ;
#195 = CARTESIAN_POINT ( 'NONE',  ( 6.799999999999991829, -2.407412430484044816E-32, -10.00000000000000533 ) ) ;
#196 = AXIS2_PLACEMENT_3D ( 'NONE', #139, #45, #290 ) ;
#197 = PLANE ( 'NONE',  #17 ) ;
#198 = AXIS2_PLACEMENT_3D ( 'NONE', #263, #46, #141 ) ;
#199 = CARTESIAN_POINT ( 'NONE',  ( 8.735351687604890003, -0.5212390170055394290, -7.984044170917896643 ) ) ;
#200 = CARTESIAN_POINT ( 'NONE',  ( 7.445645835363753129, 1.897418820108304871, 7.771901101503600806 ) ) ;
#201 = UNCERTAINTY_MEASURE_WITH_UNIT (LENGTH_MEASURE( 1.000000000000000082E-05 ), #93, 'distance_accuracy_value', 'NONE');
#202 = DIRECTION ( 'NONE',  ( 0.000000000000000000, 0.000000000000000000, 1.000000000000000000 ) ) ;
#203 = CARTESIAN_POINT ( 'NONE',  ( 5.002431116384973286, 0.8864286355026947950, 7.951659787253108291 ) ) ;
#204 = CARTESIAN_POINT ( 'NONE',  ( 8.786926025712789468, -0.2630676426233926612, 7.996703123718819306 ) ) ;
#205 = MECHANICAL_DESIGN_GEOMETRIC_PRESENTATION_REPRESENTATION (  '', ( #42 ), #132 ) ;
#206 = AXIS2_PLACEMENT_3D ( 'NONE', #195, #149, #292 ) ;
#207 = CARTESIAN_POINT ( 'NONE',  ( 7.062388576551843933, -1.987085825042435472, 7.749335319413516387 ) ) ;
#208 = CARTESIAN_POINT ( 'NONE',  ( 48.50000000000000000, 0.000000000000000000, 0.000000000000000000 ) ) ;
#209 = CARTESIAN_POINT ( 'NONE',  ( 5.003218177968626890, 0.8880638145298440644, -7.951480708525320296 ) ) ;
#210 = AXIS2_PLACEMENT_3D ( 'NONE', #300, #261, #157 ) ;
#211 = CARTESIAN_POINT ( 'NONE',  ( 5.065015314955793713, -1.003437995740827926, -7.937577104716899257 ) ) ;
#212 = CARTESIAN_POINT ( 'NONE',  ( 5.579226401574767458, -1.589529472592653425, -7.840845692126979571 ) ) ;
#213 = APPLICATION_CONTEXT ( 'automotive_design' ) ;
#214 = CARTESIAN_POINT ( 'NONE',  ( 8.799999999999991829, 0.1326938576183072371, -8.000000000000001776 ) ) ;
#215 = EDGE_CURVE ( 'NONE', #160, #160, #107, .T. ) ;
#216 = CARTESIAN_POINT ( 'NONE',  ( 6.537119866481361008, 1.986970918883058435, -7.749364203984911548 ) ) ;
#217 = ORIENTED_EDGE ( 'NONE', *, *, #144, .T. ) ;
#218 = ADVANCED_FACE ( 'NONE', ( #222, #74 ), #116, .T. ) ;
#219 = CIRCLE ( 'NONE', #102, 8.000000000000003553 ) ;
#220 = EDGE_LOOP ( 'NONE', ( #19 ) ) ;
#221 =( NAMED_UNIT ( * ) SI_UNIT ( $, .STERADIAN. ) SOLID_ANGLE_UNIT ( ) );
#222 = FACE_BOUND ( 'NONE', #305, .T. ) ;
#223 = DIRECTION ( 'NONE',  ( 1.000000000000000000, 0.000000000000000000, 0.000000000000000000 ) ) ;
#224 = PRESENTATION_LAYER_ASSIGNMENT (  '', '', ( #42 ) ) ;
#225 = DIRECTION ( 'NONE',  ( 0.000000000000000000, 0.000000000000000000, 1.000000000000000000 ) ) ;
#226 =( GEOMETRIC_REPRESENTATION_CONTEXT ( 3 ) GLOBAL_UNCERTAINTY_ASSIGNED_CONTEXT ( ( #201 ) ) GLOBAL_UNIT_ASSIGNED_CONTEXT ( ( #93, #148, #250 ) ) REPRESENTATION_CONTEXT ( 'NONE', 'WORKASPACE' ) );
#227 = DIRECTION ( 'NONE',  ( 0.000000000000000000, 0.000000000000000000, -1.000000000000000000 ) ) ;
#228 = CARTESIAN_POINT ( 'NONE',  ( 7.320786906153032625, -1.935494469010187402, 7.762381666036874961 ) ) ;
#229 = FACE_OUTER_BOUND ( 'NONE', #220, .T. ) ;
#230 = VERTEX_POINT ( 'NONE', #6 ) ;
#231 = CARTESIAN_POINT ( 'NONE',  ( 8.389898868408904420, -1.220352591867007508, 7.907132501541066283 ) ) ;
#232 = CARTESIAN_POINT ( 'NONE',  ( 6.670248399535018358, -2.000082289394082835, 7.745945445389172512 ) ) ;
#233 = CARTESIAN_POINT ( 'NONE',  ( 8.799999999999995381, -4.065758146820641628E-17, 8.000000000000003553 ) ) ;
#234 = PRODUCT_RELATED_PRODUCT_CATEGORY ( 'part', '', ( #61 ) ) ;
#235 = CARTESIAN_POINT ( 'NONE',  ( 7.062388576551843933, 1.987085825042435472, -7.749335319413516387 ) ) ;
#236 = PRODUCT_DEFINITION_SHAPE ( 'NONE', 'NONE',  #34 ) ;
#237 = CARTESIAN_POINT ( 'NONE',  ( 4.864855936035986872, 0.5219835080499038993, -7.983993734866757563 ) ) ;
#238 = CARTESIAN_POINT ( 'NONE',  ( 47.00000000000000000, 0.000000000000000000, 0.000000000000000000 ) ) ;
#239 = AXIS2_PLACEMENT_3D ( 'NONE', #193, #29, #227 ) ;
#240 = FACE_OUTER_BOUND ( 'NONE', #89, .T. ) ;
#241 = FACE_BOUND ( 'NONE', #173, .T. ) ;
#242 = PRESENTATION_STYLE_ASSIGNMENT (( #68 ) ) ;
#243 = ORIENTED_EDGE ( 'NONE', *, *, #44, .T. ) ;
#244 = DIRECTION ( 'NONE',  ( 0.000000000000000000, 0.000000000000000000, 1.000000000000000000 ) ) ;
#245 = VERTEX_POINT ( 'NONE', #23 ) ;
#246 = COLOUR_RGB ( '',0.7764705882352941346, 0.7568627450980391913, 0.7372549019607843590 ) ;
#247 = DIRECTION ( 'NONE',  ( 0.000000000000000000, 0.000000000000000000, -1.000000000000000000 ) ) ;
#248 = CARTESIAN_POINT ( 'NONE',  ( 45.00000000000000000, 0.000000000000000000, 0.000000000000000000 ) ) ;
#249 = CARTESIAN_POINT ( 'NONE',  ( 8.596503950012493789, -0.8886726971174979672, 7.951417064807503543 ) ) ;
#250 =( NAMED_UNIT ( * ) SI_UNIT ( $, .STERADIAN. ) SOLID_ANGLE_UNIT ( ) );
#251 = CARTESIAN_POINT ( 'NONE',  ( 7.807551461386198710, 1.747302763448159713, 7.807529231111637102 ) ) ;
#252 = CIRCLE ( 'NONE', #7, 8.500000000000015987 ) ;
#253 = CARTESIAN_POINT ( 'NONE',  ( 45.00000000000000000, 0.000000000000000000, 10.00000000000000533 ) ) ;
#254 = CARTESIAN_POINT ( 'NONE',  ( 8.799999999999991829, 0.000000000000000000, 8.000000000000001776 ) ) ;
#255 = CARTESIAN_POINT ( 'NONE',  ( 8.396936054072257960, 1.231738152970957234, 7.906804306981455532 ) ) ;
#256 = CARTESIAN_POINT ( 'NONE',  ( 8.029581783050074861, 1.598596971432013403, 7.840868634871601905 ) ) ;
#257 = CARTESIAN_POINT ( 'NONE',  ( 8.735796328908492114, -0.5193959850005185341, 7.984152631573065761 ) ) ;
#258 = CARTESIAN_POINT ( 'NONE',  ( 8.389898868408904420, 1.220352591867007508, -7.907132501541066283 ) ) ;
#259 = CARTESIAN_POINT ( 'NONE',  ( 6.155267835212566929, 1.897786012702618264, -7.771813519182110497 ) ) ;
#260 = CARTESIAN_POINT ( 'NONE',  ( 4.799889474043357751, -0.2608004744982262424, -8.000027631486839041 ) ) ;
#261 = DIRECTION ( 'NONE',  ( -1.000000000000000000, -0.000000000000000000, -0.000000000000000000 ) ) ;
#262 = CARTESIAN_POINT ( 'NONE',  ( 6.670248399535018358, 2.000082289394082835, -7.745945445389172512 ) ) ;
#263 = CARTESIAN_POINT ( 'NONE',  ( 1.499999999999999112, 0.000000000000000000, 0.000000000000000000 ) ) ;
#264 = EDGE_LOOP ( 'NONE', ( #192 ) ) ;
#265 = CARTESIAN_POINT ( 'NONE',  ( 1.499999999999999112, 0.000000000000000000, 8.000000000000000000 ) ) ;
#266 = ORIENTED_EDGE ( 'NONE', *, *, #310, .T. ) ;
#267 = UNCERTAINTY_MEASURE_WITH_UNIT (LENGTH_MEASURE( 1.000000000000000082E-05 ), #49, 'distance_accuracy_value', 'NONE');
#268 = ORIENTED_EDGE ( 'NONE', *, *, #168, .T. ) ;
#269 = APPLICATION_PROTOCOL_DEFINITION ( 'draft international standard', 'automotive_design', 1998, #37 ) ;
#270 = CARTESIAN_POINT ( 'NONE',  ( 8.396936054072257960, -1.231738152970957234, -7.906804306981455532 ) ) ;
#271 = DIRECTION ( 'NONE',  ( 1.000000000000000000, 0.000000000000000000, 0.000000000000000000 ) ) ;
#272 = ADVANCED_FACE ( 'NONE', ( #2 ), #170, .F. ) ;
#273 = FACE_BOUND ( 'NONE', #312, .T. ) ;
#274 = CARTESIAN_POINT ( 'NONE',  ( -6.178381390562178934E-16, 0.000000000000000000, 0.000000000000000000 ) ) ;
#275 = FACE_BOUND ( 'NONE', #143, .T. ) ;
#276 = CARTESIAN_POINT ( 'NONE',  ( 7.317979211385751803, -1.936194592322518337, -7.762206047772254536 ) ) ;
#277 = CARTESIAN_POINT ( 'NONE',  ( 5.795215669357679289, 1.734157020499708546, 7.810132171752178998 ) ) ;
#278 = CARTESIAN_POINT ( 'NONE',  ( 5.293284783578028119, -1.321730646216308980, 7.890620032838621789 ) ) ;
#279 = CARTESIAN_POINT ( 'NONE',  ( 5.909847954400285985, 1.795824432500143120, 7.796006770207849712 ) ) ;
#280 = CARTESIAN_POINT ( 'NONE',  ( 6.155267835212566929, -1.897786012702618264, 7.771813519182110497 ) ) ;
#281 = CARTESIAN_POINT ( 'NONE',  ( 8.535031877734535755, 1.003346023807034193, -7.937587895696920803 ) ) ;
#282 = CARTESIAN_POINT ( 'NONE',  ( 6.932276148705512675, 1.999916913937860308, -7.745988145139289571 ) ) ;
#283 = CARTESIAN_POINT ( 'NONE',  ( 8.799999999999991829, -2.407412430484044816E-32, -8.000000000000001776 ) ) ;
#284 = STYLED_ITEM ( 'NONE', ( #242 ), #189 ) ;
#285 = PRESENTATION_LAYER_ASSIGNMENT (  '', '', ( #284 ) ) ;
#286 = DIRECTION ( 'NONE',  ( 0.000000000000000000, 0.000000000000000000, 1.000000000000000000 ) ) ;
#287 = VERTEX_POINT ( 'NONE', #283 ) ;
#288 = DIRECTION ( 'NONE',  ( -1.000000000000000000, 0.000000000000000000, -0.000000000000000000 ) ) ;
#289 = DIRECTION ( 'NONE',  ( -1.000000000000000000, -0.000000000000000000, -0.000000000000000000 ) ) ;
#290 = DIRECTION ( 'NONE',  ( 0.000000000000000000, 0.000000000000000000, 1.000000000000000000 ) ) ;
#291 = ORIENTED_EDGE ( 'NONE', *, *, #84, .F. ) ;
#292 = DIRECTION ( 'NONE',  ( 1.000000000000000000, 0.000000000000000000, 0.000000000000000000 ) ) ;
#293 = FACE_OUTER_BOUND ( 'NONE', #140, .T. ) ;
#294 = CARTESIAN_POINT ( 'NONE',  ( 8.799999999999995381, 4.065758146820641628E-17, -8.000000000000003553 ) ) ;
#295 = CARTESIAN_POINT ( 'NONE',  ( 5.065015314955793713, 1.003437995740827926, 7.937577104716899257 ) ) ;
#296 = CARTESIAN_POINT ( 'NONE',  ( 6.535070414041910247, -1.999861041126618000, -7.746002571436383377 ) ) ;
#297 = FILL_AREA_STYLE_COLOUR ( '', #22 ) ;
#298 = CARTESIAN_POINT ( 'NONE',  ( 5.003218177968626890, -0.8880638145298440644, 7.951480708525320296 ) ) ;
#299 = CARTESIAN_POINT ( 'NONE',  ( 8.735351687604890003, 0.5212390170055394290, 7.984044170917896643 ) ) ;
#300 = CARTESIAN_POINT ( 'NONE',  ( 45.00000000000000000, 0.000000000000000000, 0.000000000000000000 ) ) ;
#301 = CARTESIAN_POINT ( 'NONE',  ( 4.902923892400390393, 0.6466718616380381368, -7.974742522495203545 ) ) ;
#302 = CARTESIAN_POINT ( 'NONE',  ( 8.305793685546051464, 1.322669827304608248, -7.890452986384936196 ) ) ;
#303 = CARTESIAN_POINT ( 'NONE',  ( 5.795215669357679289, -1.734157020499708546, -7.810132171752178998 ) ) ;
#304 = PRODUCT_DEFINITION_FORMATION_WITH_SPECIFIED_SOURCE ( 'ANY', '', #61, .NOT_KNOWN. ) ;
#305 = EDGE_LOOP ( 'NONE', ( #115 ) ) ;
#306 = FILL_AREA_STYLE ('',( #28 ) ) ;
#307 = AXIS2_PLACEMENT_3D ( 'NONE', #238, #131, #110 ) ;
#308 = ORIENTED_EDGE ( 'NONE', *, *, #158, .F. ) ;
#309 = APPLICATION_PROTOCOL_DEFINITION ( 'draft international standard', 'automotive_design', 1998, #213 ) ;
#310 = EDGE_CURVE ( 'NONE', #134, #134, #162, .T. ) ;
#311 = CARTESIAN_POINT ( 'NONE',  ( 6.274731165233891517, -1.947695273348126532, -7.759981374729036929 ) ) ;
#312 = EDGE_LOOP ( 'NONE', ( #188 ) ) ;
#313 = CYLINDRICAL_SURFACE ( 'NONE', #196, 10.00000000000000533 ) ;
#314 = SHAPE_DEFINITION_REPRESENTATION ( #236, #189 ) ;
ENDSEC;
END-ISO-10303-21;
