ISO-10303-21;
HEADER;
FILE_DESCRIPTION (( 'STEP AP214' ),
    '1' );
FILE_NAME ('76.04.02.0004.step',
    '2021-04-02T18:00:06',
    ( '' ),
    ( '' ),
    'SwSTEP 2.0',
    'SolidWorks 2021',
    '' );
FILE_SCHEMA (( 'AUTOMOTIVE_DESIGN' ));
ENDSEC;

DATA;
#1 = CARTESIAN_POINT ( 'NONE',  ( 2.526388374808140380, 0.2629879425960676143, -3.993186714740070364 ) ) ;
#2 =( NAMED_UNIT ( * ) SI_UNIT ( $, .STERADIAN. ) SOLID_ANGLE_UNIT ( ) );
#3 = CARTESIAN_POINT ( 'NONE',  ( 2.526293510817843924, 0.2624981716213485305, 3.993212216743908805 ) ) ;
#4 = AXIS2_PLACEMENT_3D ( 'NONE', #53, #27, #130 ) ;
#5 = CARTESIAN_POINT ( 'NONE',  ( 4.499999999999999112, -2.710505431213761085E-17, 3.999999999999999112 ) ) ;
#6 = PLANE ( 'NONE',  #179 ) ;
#7 = EDGE_CURVE ( 'NONE', #180, #180, #81, .T. ) ;
#8 = CARTESIAN_POINT ( 'NONE',  ( 0.000000000000000000, 0.000000000000000000, 0.000000000000000000 ) ) ;
#9 = CARTESIAN_POINT ( 'NONE',  ( 0.000000000000000000, 0.000000000000000000, 0.000000000000000000 ) ) ;
#10 = PLANE ( 'NONE',  #222 ) ;
#11 = CARTESIAN_POINT ( 'NONE',  ( 25.00000000000000000, 0.000000000000000000, 0.000000000000000000 ) ) ;
#12 = EDGE_CURVE ( 'NONE', #269, #269, #175, .T. ) ;
#13 = FACE_OUTER_BOUND ( 'NONE', #42, .T. ) ;
#14 = ADVANCED_FACE ( 'NONE', ( #200, #243 ), #97, .T. ) ;
#15 = FILL_AREA_STYLE ('',( #235 ) ) ;
#16 = CARTESIAN_POINT ( 'NONE',  ( 3.763587651320584815, 0.9733782612706236570, -3.880099346375407876 ) ) ;
#17 = CARTESIAN_POINT ( 'NONE',  ( 23.00000000000000000, 0.000000000000000000, 4.000000000000001776 ) ) ;
#18 = CARTESIAN_POINT ( 'NONE',  ( 2.700242099943472862, -0.6143227116428432444, -3.953656110527420608 ) ) ;
#19 = AXIS2_PLACEMENT_3D ( 'NONE', #84, #204, #57 ) ;
#20 = CARTESIAN_POINT ( 'NONE',  ( 24.00000000000000000, 0.000000000000000000, 6.000000000000001776 ) ) ;
#21 = EDGE_LOOP ( 'NONE', ( #193 ) ) ;
#22 = CARTESIAN_POINT ( 'NONE',  ( 23.00000000000000000, 0.000000000000000000, 6.000000000000000888 ) ) ;
#23 = PRODUCT_DEFINITION_CONTEXT ( 'detailed design', #190, 'design' ) ;
#24 = EDGE_LOOP ( 'NONE', ( #166 ) ) ;
#25 = ORIENTED_EDGE ( 'NONE', *, *, #7, .T. ) ;
#26 = COLOUR_RGB ( '',0.7764705882352941346, 0.7568627450980391913, 0.7372549019607843590 ) ;
#27 = DIRECTION ( 'NONE',  ( -1.000000000000000000, -0.000000000000000000, -0.000000000000000000 ) ) ;
#28 = SURFACE_STYLE_USAGE ( .BOTH. , #149 ) ;
#29 = CARTESIAN_POINT ( 'NONE',  ( 4.372979507511558950, -0.5048850357595637828, -3.969850692948448945 ) ) ;
#30 = AXIS2_PLACEMENT_3D ( 'NONE', #33, #95, #185 ) ;
#31 = DIRECTION ( 'NONE',  ( 0.000000000000000000, 0.000000000000000000, -1.000000000000000000 ) ) ;
#32 = CARTESIAN_POINT ( 'NONE',  ( 2.994110108727879638, 0.8726004094420745094, 3.904007617683724174 ) ) ;
#33 = CARTESIAN_POINT ( 'NONE',  ( 25.00000000000000000, 0.000000000000000000, 0.000000000000000000 ) ) ;
#34 = AXIS2_PLACEMENT_3D ( 'NONE', #38, #220, #201 ) ;
#35 = CARTESIAN_POINT ( 'NONE',  ( 23.00000000000000000, 0.000000000000000000, 0.000000000000000000 ) ) ;
#36 = FACE_OUTER_BOUND ( 'NONE', #100, .T. ) ;
#37 = UNCERTAINTY_MEASURE_WITH_UNIT (LENGTH_MEASURE( 1.000000000000000082E-05 ), #99, 'distance_accuracy_value', 'NONE');
#38 = CARTESIAN_POINT ( 'NONE',  ( 3.499999999999999556, -2.407412430484044816E-32, -6.000000000000001776 ) ) ;
#39 = DIRECTION ( 'NONE',  ( 0.000000000000000000, 0.000000000000000000, 1.000000000000000000 ) ) ;
#40 = VERTEX_POINT ( 'NONE', #156 ) ;
#41 = CARTESIAN_POINT ( 'NONE',  ( 3.237365582616948956, -0.9738476366740637102, -3.879990687364517132 ) ) ;
#42 = EDGE_LOOP ( 'NONE', ( #146 ) ) ;
#43 = CARTESIAN_POINT ( 'NONE',  ( -2.112623243741537060E-16, 0.000000000000000000, 3.000000000000001776 ) ) ;
#44 = EDGE_LOOP ( 'NONE', ( #121 ) ) ;
#45 = PRODUCT ( '76.04.02.0004', '76.04.02.0004', '', ( #167 ) ) ;
#46 = ORIENTED_EDGE ( 'NONE', *, *, #230, .T. ) ;
#47 = CARTESIAN_POINT ( 'NONE',  ( 2.885609595351987355, 0.7998043981007503245, -3.920353214770347705 ) ) ;
#48 = DIRECTION ( 'NONE',  ( 1.000000000000000000, 0.000000000000000000, 0.000000000000000000 ) ) ;
#49 = AXIS2_PLACEMENT_3D ( 'NONE', #249, #135, #224 ) ;
#50 = CARTESIAN_POINT ( 'NONE',  ( 4.499999999999999112, 2.710505431213761085E-17, -3.999999999999999112 ) ) ;
#51 = CARTESIAN_POINT ( 'NONE',  ( 4.473255713058572169, 0.2641504057689765816, 3.993100047177543299 ) ) ;
#52 = CARTESIAN_POINT ( 'NONE',  ( 4.499999999999999112, -0.1326938576183073759, 4.000000000000000000 ) ) ;
#53 = CARTESIAN_POINT ( 'NONE',  ( 0.9999999999999997780, 0.000000000000000000, 0.000000000000000000 ) ) ;
#54 = FACE_OUTER_BOUND ( 'NONE', #165, .T. ) ;
#55 = FACE_BOUND ( 'NONE', #61, .T. ) ;
#56 =( NAMED_UNIT ( * ) PLANE_ANGLE_UNIT ( ) SI_UNIT ( $, .RADIAN. ) );
#57 = DIRECTION ( 'NONE',  ( 0.000000000000000000, 0.000000000000000000, 1.000000000000000000 ) ) ;
#58 = AXIS2_PLACEMENT_3D ( 'NONE', #8, #132, #76 ) ;
#59 = CARTESIAN_POINT ( 'NONE',  ( 2.884527973445056404, -0.7988737555279891156, -3.920534371368223248 ) ) ;
#60 = CARTESIAN_POINT ( 'NONE',  ( 2.500055441999219585, 0.1312464544659426857, -3.999986139501356508 ) ) ;
#61 = EDGE_LOOP ( 'NONE', ( #120 ) ) ;
#62 = ADVANCED_FACE ( 'NONE', ( #127 ), #6, .F. ) ;
#63 = EDGE_LOOP ( 'NONE', ( #229 ) ) ;
#64 = CARTESIAN_POINT ( 'NONE',  ( 3.238331849061597545, 0.9740642140566057039, -3.879932478000870599 ) ) ;
#65 = CARTESIAN_POINT ( 'NONE',  ( 4.115105738646330558, -0.7990713521186505464, 3.920483232541134733 ) ) ;
#66 = CARTESIAN_POINT ( 'NONE',  ( 4.372979507511558950, 0.5048850357595637828, 3.969850692948448945 ) ) ;
#67 = PRODUCT_DEFINITION_FORMATION_WITH_SPECIFIED_SOURCE ( 'ANY', '', #45, .NOT_KNOWN. ) ;
#68 = CARTESIAN_POINT ( 'NONE',  ( 2.884527973445056404, 0.7988737555279891156, 3.920534371368223248 ) ) ;
#69 = CARTESIAN_POINT ( 'NONE',  ( 3.762505313344807423, 0.9737287528308435913, 3.880012529150460576 ) ) ;
#70 = EDGE_CURVE ( 'NONE', #40, #40, #116, .T. ) ;
#71 = DIRECTION ( 'NONE',  ( 1.000000000000000000, 0.000000000000000000, 0.000000000000000000 ) ) ;
#72 = STYLED_ITEM ( 'NONE', ( #257 ), #194 ) ;
#73 = DIRECTION ( 'NONE',  ( 0.000000000000000000, 0.000000000000000000, 1.000000000000000000 ) ) ;
#74 = CARTESIAN_POINT ( 'NONE',  ( 4.500000000000000000, -2.407412430484044816E-32, -4.000000000000000000 ) ) ;
#75 = CARTESIAN_POINT ( 'NONE',  ( 0.000000000000000000, 0.000000000000000000, 0.000000000000000000 ) ) ;
#76 = DIRECTION ( 'NONE',  ( 0.000000000000000000, 0.000000000000000000, 1.000000000000000000 ) ) ;
#77 = CARTESIAN_POINT ( 'NONE',  ( 4.500000000000000000, 0.000000000000000000, 4.000000000000000000 ) ) ;
#78 = CARTESIAN_POINT ( 'NONE',  ( 2.499944737021683405, -0.1304002372491132045, -4.000013815743416856 ) ) ;
#79 = ORIENTED_EDGE ( 'NONE', *, *, #253, .F. ) ;
#80 = SURFACE_SIDE_STYLE ('',( #145 ) ) ;
#81 = B_SPLINE_CURVE_WITH_KNOTS ( 'NONE', 3,
 ( #101, #143, #232, #96, #123, #274, #258, #16, #102, #252, #64, #147, #47, #207, #196, #1, #60, #78, #163, #251, #18, #59, #139, #41, #206, #187, #270, #98, #189, #152, #29, #216, #218, #50 ),
 .UNSPECIFIED., .T., .F.,
 ( 4, 2, 2, 2, 2, 2, 2, 2, 2, 2, 2, 2, 2, 2, 2, 2, 4 ),
 ( 0.000000000000000000, 0.0003923156643295066756, 0.0007846313286590133511, 0.001176946992988520081, 0.001569262657318025401, 0.001961578321647530938, 0.002353893985977036692, 0.002746209650306542446, 0.003138525314636047333, 0.003530840978965553087, 0.003923156643295058407, 0.004315472307624563728, 0.004707787971954069048, 0.005100103636283574368, 0.005492419300613079688, 0.005884734964942585009, 0.006277050629272090329 ),
 .UNSPECIFIED. ) ;
#82 = ORIENTED_EDGE ( 'NONE', *, *, #253, .T. ) ;
#83 = CIRCLE ( 'NONE', #94, 6.000000000000000888 ) ;
#84 = CARTESIAN_POINT ( 'NONE',  ( -2.112623243741537060E-16, 0.000000000000000000, 0.000000000000000000 ) ) ;
#85 =( LENGTH_UNIT ( ) NAMED_UNIT ( * ) SI_UNIT ( .MILLI., .METRE. ) );
#86 = CARTESIAN_POINT ( 'NONE',  ( 2.626682660376375100, -0.5043798954878732088, 3.969924900770184895 ) ) ;
#87 = AXIS2_PLACEMENT_3D ( 'NONE', #215, #48, #31 ) ;
#88 = CARTESIAN_POINT ( 'NONE',  ( 3.367535207020960542, 0.9999305205633123306, 3.873001285718253417 ) ) ;
#89 = CARTESIAN_POINT ( 'NONE',  ( 4.373106707607803401, -0.5048269823837485681, 3.969876851864702516 ) ) ;
#90 = MANIFOLD_SOLID_BREP ( 'Cut-Extrude1', #217 ) ;
#91 = DIRECTION ( 'NONE',  ( 0.000000000000000000, 0.000000000000000000, -1.000000000000000000 ) ) ;
#92 = PLANE ( 'NONE',  #248 ) ;
#93 = DIRECTION ( 'NONE',  ( -1.000000000000000000, -0.000000000000000000, -0.000000000000000000 ) ) ;
#94 = AXIS2_PLACEMENT_3D ( 'NONE', #35, #158, #73 ) ;
#95 = DIRECTION ( 'NONE',  ( -1.000000000000000000, -0.000000000000000000, -0.000000000000000000 ) ) ;
#96 = CARTESIAN_POINT ( 'NONE',  ( 4.373106707607803401, 0.5048269823837485681, -3.969876851864702516 ) ) ;
#97 = CONICAL_SURFACE ( 'NONE', #87, 3.999999999999998224, 0.7853981633974466137 ) ;
#98 = CARTESIAN_POINT ( 'NONE',  ( 4.003775730693104329, -0.8736513817240795232, -3.903764615555818551 ) ) ;
#99 =( LENGTH_UNIT ( ) NAMED_UNIT ( * ) SI_UNIT ( .MILLI., .METRE. ) );
#100 = EDGE_LOOP ( 'NONE', ( #79 ) ) ;
#101 = CARTESIAN_POINT ( 'NONE',  ( 4.499999999999999112, 2.710505431213761085E-17, -3.999999999999999112 ) ) ;
#102 = CARTESIAN_POINT ( 'NONE',  ( 3.631645011645382226, 0.9999171131048740779, -3.873004747507172052 ) ) ;
#103 = PRESENTATION_LAYER_ASSIGNMENT (  '', '', ( #242 ) ) ;
#104 = PRESENTATION_STYLE_ASSIGNMENT (( #28 ) ) ;
#105 = CARTESIAN_POINT ( 'NONE',  ( 3.631645011645382226, -0.9999171131048740779, 3.873004747507172052 ) ) ;
#106 =( NAMED_UNIT ( * ) PLANE_ANGLE_UNIT ( ) SI_UNIT ( $, .RADIAN. ) );
#107 = CARTESIAN_POINT ( 'NONE',  ( 4.298827210815258759, -0.6154227674968552053, 3.953474246742910037 ) ) ;
#108 = CARTESIAN_POINT ( 'NONE',  ( 3.763587651320584815, -0.9733782612706236570, 3.880099346375407876 ) ) ;
#109 = CARTESIAN_POINT ( 'NONE',  ( 2.500055441999219585, -0.1312464544659426857, 3.999986139501356508 ) ) ;
#110 = EDGE_CURVE ( 'NONE', #246, #246, #129, .T. ) ;
#111 = CARTESIAN_POINT ( 'NONE',  ( 25.00000000000000000, 0.000000000000000000, 0.000000000000000000 ) ) ;
#112 = DIRECTION ( 'NONE',  ( 0.000000000000000000, 0.000000000000000000, 1.000000000000000000 ) ) ;
#113 = UNCERTAINTY_MEASURE_WITH_UNIT (LENGTH_MEASURE( 1.000000000000000082E-05 ), #85, 'distance_accuracy_value', 'NONE');
#114 = CARTESIAN_POINT ( 'NONE',  ( 23.00000000000000000, 0.000000000000000000, 0.000000000000000000 ) ) ;
#115 = SHAPE_DEFINITION_REPRESENTATION ( #266, #194 ) ;
#116 = CIRCLE ( 'NONE', #4, 3.999999999999998224 ) ;
#117 = FACE_OUTER_BOUND ( 'NONE', #24, .T. ) ;
#118 =( LENGTH_UNIT ( ) NAMED_UNIT ( * ) SI_UNIT ( .MILLI., .METRE. ) );
#119 = APPLICATION_CONTEXT ( 'automotive_design' ) ;
#120 = ORIENTED_EDGE ( 'NONE', *, *, #230, .F. ) ;
#121 = ORIENTED_EDGE ( 'NONE', *, *, #110, .T. ) ;
#122 = ORIENTED_EDGE ( 'NONE', *, *, #70, .T. ) ;
#123 = CARTESIAN_POINT ( 'NONE',  ( 4.298827210815258759, 0.6154227674968552053, -3.953474246742910037 ) ) ;
#124 = FILL_AREA_STYLE ('',( #237 ) ) ;
#125 = CARTESIAN_POINT ( 'NONE',  ( 2.526388374808140380, -0.2629879425960676143, 3.993186714740070364 ) ) ;
#126 = PRODUCT_RELATED_PRODUCT_CATEGORY ( 'part', '', ( #45 ) ) ;
#127 = FACE_OUTER_BOUND ( 'NONE', #44, .T. ) ;
#128 = CARTESIAN_POINT ( 'NONE',  ( 3.238331849061597545, -0.9740642140566057039, 3.879932478000870599 ) ) ;
#129 = CIRCLE ( 'NONE', #19, 3.000000000000001776 ) ;
#130 = DIRECTION ( 'NONE',  ( 0.000000000000000000, 0.000000000000000000, 1.000000000000000000 ) ) ;
#131 = CARTESIAN_POINT ( 'NONE',  ( 23.00000000000000000, 6.000000000000000888, 0.000000000000000000 ) ) ;
#132 = DIRECTION ( 'NONE',  ( -1.000000000000000000, -0.000000000000000000, -0.000000000000000000 ) ) ;
#133 = AXIS2_PLACEMENT_3D ( 'NONE', #75, #155, #263 ) ;
#134 = DIRECTION ( 'NONE',  ( -1.000000000000000000, 0.000000000000000000, -0.000000000000000000 ) ) ;
#135 = DIRECTION ( 'NONE',  ( -1.000000000000000000, -0.000000000000000000, -0.000000000000000000 ) ) ;
#136 = DIRECTION ( 'NONE',  ( 1.000000000000000000, 0.000000000000000000, 0.000000000000000000 ) ) ;
#137 = PRESENTATION_LAYER_ASSIGNMENT (  '', '', ( #72 ) ) ;
#138 = APPLICATION_PROTOCOL_DEFINITION ( 'draft international standard', 'automotive_design', 1998, #119 ) ;
#139 = CARTESIAN_POINT ( 'NONE',  ( 2.994110108727879638, -0.8726004094420745094, -3.904007617683724174 ) ) ;
#140 = ADVANCED_FACE ( 'NONE', ( #36 ), #92, .F. ) ;
#141 = EDGE_LOOP ( 'NONE', ( #171 ) ) ;
#142 = VERTEX_POINT ( 'NONE', #22 ) ;
#143 = CARTESIAN_POINT ( 'NONE',  ( 4.499999999999999112, 0.1326938576183073759, -4.000000000000000000 ) ) ;
#144 = AXIS2_PLACEMENT_3D ( 'NONE', #11, #93, #112 ) ;
#145 = SURFACE_STYLE_FILL_AREA ( #15 ) ;
#146 = ORIENTED_EDGE ( 'NONE', *, *, #240, .F. ) ;
#147 = CARTESIAN_POINT ( 'NONE',  ( 2.995540123240334918, 0.8733793832355212228, -3.903829604361698902 ) ) ;
#148 = CARTESIAN_POINT ( 'NONE',  ( 2.995540123240334918, -0.8733793832355212228, 3.903829604361698902 ) ) ;
#149 = SURFACE_SIDE_STYLE ('',( #214 ) ) ;
#150 = CARTESIAN_POINT ( 'NONE',  ( 4.298468027036132177, 0.6158690764854782840, 3.953402153490726878 ) ) ;
#151 = CARTESIAN_POINT ( 'NONE',  ( 4.003775730693104329, 0.8736513817240795232, 3.903764615555818551 ) ) ;
#152 = CARTESIAN_POINT ( 'NONE',  ( 4.298468027036132177, -0.6158690764854782840, -3.953402153490726878 ) ) ;
#153 = ADVANCED_FACE ( 'NONE', ( #117, #178 ), #250, .T. ) ;
#154 = CIRCLE ( 'NONE', #213, 4.000000000000001776 ) ;
#155 = DIRECTION ( 'NONE',  ( -1.000000000000000000, -0.000000000000000000, -0.000000000000000000 ) ) ;
#156 = CARTESIAN_POINT ( 'NONE',  ( 0.9999999999999997780, 0.000000000000000000, 3.999999999999998224 ) ) ;
#157 = DIRECTION ( 'NONE',  ( 1.000000000000000000, 0.000000000000000000, 0.000000000000000000 ) ) ;
#158 = DIRECTION ( 'NONE',  ( -1.000000000000000000, -0.000000000000000000, -0.000000000000000000 ) ) ;
#159 = CIRCLE ( 'NONE', #49, 6.000000000000001776 ) ;
#160 = FACE_OUTER_BOUND ( 'NONE', #21, .T. ) ;
#161 = VERTEX_POINT ( 'NONE', #20 ) ;
#162 = ADVANCED_FACE ( 'NONE', ( #13, #181 ), #233, .T. ) ;
#163 = CARTESIAN_POINT ( 'NONE',  ( 2.526293510817843924, -0.2624981716213485305, -3.993212216743908805 ) ) ;
#164 = VERTEX_POINT ( 'NONE', #271 ) ;
#165 = EDGE_LOOP ( 'NONE', ( #168 ) ) ;
#166 = ORIENTED_EDGE ( 'NONE', *, *, #225, .F. ) ;
#167 = PRODUCT_CONTEXT ( 'NONE', #119, 'mechanical' ) ;
#168 = ORIENTED_EDGE ( 'NONE', *, *, #12, .F. ) ;
#169 = AXIS2_PLACEMENT_3D ( 'NONE', #9, #39, #157 ) ;
#170 = SURFACE_STYLE_USAGE ( .BOTH. , #80 ) ;
#171 = ORIENTED_EDGE ( 'NONE', *, *, #110, .F. ) ;
#172 = CARTESIAN_POINT ( 'NONE',  ( 2.700242099943472862, 0.6143227116428432444, 3.953656110527420608 ) ) ;
#173 = ADVANCED_FACE ( 'NONE', ( #55, #202 ), #10, .F. ) ;
#174 = CARTESIAN_POINT ( 'NONE',  ( 3.369617262474888797, -1.000082488561097271, 3.872962047757054993 ) ) ;
#175 = B_SPLINE_CURVE_WITH_KNOTS ( 'NONE', 3,
 ( #5, #52, #219, #89, #107, #65, #261, #108, #105, #174, #128, #148, #198, #176, #86, #125, #109, #197, #3, #260, #172, #68, #32, #262, #88, #259, #69, #151, #241, #150, #66, #51, #239, #199 ),
 .UNSPECIFIED., .T., .F.,
 ( 4, 2, 2, 2, 2, 2, 2, 2, 2, 2, 2, 2, 2, 2, 2, 2, 4 ),
 ( 0.000000000000000000, 0.0003923156643295066756, 0.0007846313286590133511, 0.001176946992988520081, 0.001569262657318025401, 0.001961578321647530938, 0.002353893985977036692, 0.002746209650306542446, 0.003138525314636047333, 0.003530840978965553087, 0.003923156643295058407, 0.004315472307624563728, 0.004707787971954069048, 0.005100103636283574368, 0.005492419300613079688, 0.005884734964942585009, 0.006277050629272090329 ),
 .UNSPECIFIED. ) ;
#176 = CARTESIAN_POINT ( 'NONE',  ( 2.700319990601360853, -0.6145522981106220639, 3.953628950302296552 ) ) ;
#177 = CARTESIAN_POINT ( 'NONE',  ( -1.056311621870768530E-16, 3.000000000000001776, 0.000000000000000000 ) ) ;
#178 = FACE_OUTER_BOUND ( 'NONE', #272, .T. ) ;
#179 = AXIS2_PLACEMENT_3D ( 'NONE', #177, #71, #238 ) ;
#180 = VERTEX_POINT ( 'NONE', #74 ) ;
#181 = FACE_BOUND ( 'NONE', #210, .T. ) ;
#182 = PRODUCT_DEFINITION ( 'UNKNOWN', '', #67, #23 ) ;
#183 = FACE_BOUND ( 'NONE', #255, .T. ) ;
#184 =( GEOMETRIC_REPRESENTATION_CONTEXT ( 3 ) GLOBAL_UNCERTAINTY_ASSIGNED_CONTEXT ( ( #37 ) ) GLOBAL_UNIT_ASSIGNED_CONTEXT ( ( #99, #209, #186 ) ) REPRESENTATION_CONTEXT ( 'NONE', 'WORKASPACE' ) );
#185 = DIRECTION ( 'NONE',  ( 0.000000000000000000, 0.000000000000000000, 1.000000000000000000 ) ) ;
#186 =( NAMED_UNIT ( * ) SI_UNIT ( $, .STERADIAN. ) SOLID_ANGLE_UNIT ( ) );
#187 = CARTESIAN_POINT ( 'NONE',  ( 3.631413683026627925, -1.000069203228642900, -3.872965478013312257 ) ) ;
#188 = MECHANICAL_DESIGN_GEOMETRIC_PRESENTATION_REPRESENTATION (  '', ( #72 ), #256 ) ;
#189 = CARTESIAN_POINT ( 'NONE',  ( 4.114790891525037075, -0.7992984857160070344, -3.920434317435800509 ) ) ;
#190 = APPLICATION_CONTEXT ( 'automotive_design' ) ;
#191 = EDGE_LOOP ( 'NONE', ( #122 ) ) ;
#192 = ADVANCED_FACE ( 'NONE', ( #183, #226, #267, #244 ), #265, .T. ) ;
#193 = ORIENTED_EDGE ( 'NONE', *, *, #7, .F. ) ;
#194 = ADVANCED_BREP_SHAPE_REPRESENTATION ( '76.04.02.0004', ( #90, #169 ), #184 ) ;
#195 = COLOUR_RGB ( '',0.7764705882352941346, 0.7568627450980391913, 0.7372549019607843590 ) ;
#196 = CARTESIAN_POINT ( 'NONE',  ( 2.626682660376375100, 0.5043798954878732088, -3.969924900770184895 ) ) ;
#197 = CARTESIAN_POINT ( 'NONE',  ( 2.499944737021683405, 0.1304002372491132045, 4.000013815743416856 ) ) ;
#198 = CARTESIAN_POINT ( 'NONE',  ( 2.885609595351987355, -0.7998043981007503245, 3.920353214770347705 ) ) ;
#199 = CARTESIAN_POINT ( 'NONE',  ( 4.499999999999999112, -2.710505431213761085E-17, 3.999999999999999112 ) ) ;
#200 = FACE_BOUND ( 'NONE', #141, .T. ) ;
#201 = DIRECTION ( 'NONE',  ( 1.000000000000000000, 0.000000000000000000, 0.000000000000000000 ) ) ;
#202 = FACE_OUTER_BOUND ( 'NONE', #273, .T. ) ;
#203 = DIRECTION ( 'NONE',  ( -0.000000000000000000, 0.000000000000000000, 1.000000000000000000 ) ) ;
#204 = DIRECTION ( 'NONE',  ( -1.000000000000000000, -0.000000000000000000, -0.000000000000000000 ) ) ;
#205 =( GEOMETRIC_REPRESENTATION_CONTEXT ( 3 ) GLOBAL_UNCERTAINTY_ASSIGNED_CONTEXT ( ( #113 ) ) GLOBAL_UNIT_ASSIGNED_CONTEXT ( ( #85, #56, #223 ) ) REPRESENTATION_CONTEXT ( 'NONE', 'WORKASPACE' ) );
#206 = CARTESIAN_POINT ( 'NONE',  ( 3.367535207020960542, -0.9999305205633123306, -3.873001285718253417 ) ) ;
#207 = CARTESIAN_POINT ( 'NONE',  ( 2.700319990601360853, 0.6145522981106220639, -3.953628950302296552 ) ) ;
#208 = CIRCLE ( 'NONE', #30, 5.000000000000004441 ) ;
#209 =( NAMED_UNIT ( * ) PLANE_ANGLE_UNIT ( ) SI_UNIT ( $, .RADIAN. ) );
#210 = EDGE_LOOP ( 'NONE', ( #82 ) ) ;
#211 = EDGE_LOOP ( 'NONE', ( #46 ) ) ;
#212 = ORIENTED_EDGE ( 'NONE', *, *, #12, .T. ) ;
#213 = AXIS2_PLACEMENT_3D ( 'NONE', #114, #221, #247 ) ;
#214 = SURFACE_STYLE_FILL_AREA ( #124 ) ;
#215 = CARTESIAN_POINT ( 'NONE',  ( 0.9999999999999997780, 0.000000000000000000, 0.000000000000000000 ) ) ;
#216 = CARTESIAN_POINT ( 'NONE',  ( 4.473255713058572169, -0.2641504057689765816, -3.993100047177543299 ) ) ;
#217 = CLOSED_SHELL ( 'NONE', ( #140, #162, #153, #173, #192, #14, #62, #245 ) ) ;
#218 = CARTESIAN_POINT ( 'NONE',  ( 4.499999999999999112, -0.1326938576183068208, -3.999999999999998224 ) ) ;
#219 = CARTESIAN_POINT ( 'NONE',  ( 4.473687777201589277, -0.2628644470837504521, 3.993203574020895097 ) ) ;
#220 = DIRECTION ( 'NONE',  ( -0.000000000000000000, -0.000000000000000000, 1.000000000000000000 ) ) ;
#221 = DIRECTION ( 'NONE',  ( -1.000000000000000000, -0.000000000000000000, -0.000000000000000000 ) ) ;
#222 = AXIS2_PLACEMENT_3D ( 'NONE', #131, #136, #91 ) ;
#223 =( NAMED_UNIT ( * ) SI_UNIT ( $, .STERADIAN. ) SOLID_ANGLE_UNIT ( ) );
#224 = DIRECTION ( 'NONE',  ( 0.000000000000000000, 0.000000000000000000, 1.000000000000000000 ) ) ;
#225 = EDGE_CURVE ( 'NONE', #142, #142, #83, .T. ) ;
#226 = FACE_BOUND ( 'NONE', #234, .T. ) ;
#227 = ORIENTED_EDGE ( 'NONE', *, *, #225, .T. ) ;
#228 = UNCERTAINTY_MEASURE_WITH_UNIT (LENGTH_MEASURE( 1.000000000000000082E-05 ), #118, 'distance_accuracy_value', 'NONE');
#229 = ORIENTED_EDGE ( 'NONE', *, *, #70, .F. ) ;
#230 = EDGE_CURVE ( 'NONE', #231, #231, #154, .T. ) ;
#231 = VERTEX_POINT ( 'NONE', #17 ) ;
#232 = CARTESIAN_POINT ( 'NONE',  ( 4.473687777201589277, 0.2628644470837504521, -3.993203574020895097 ) ) ;
#233 = CONICAL_SURFACE ( 'NONE', #144, 5.000000000000004441, 0.7853981633974466137 ) ;
#234 = EDGE_LOOP ( 'NONE', ( #25 ) ) ;
#235 = FILL_AREA_STYLE_COLOUR ( '', #195 ) ;
#236 = ORIENTED_EDGE ( 'NONE', *, *, #240, .T. ) ;
#237 = FILL_AREA_STYLE_COLOUR ( '', #26 ) ;
#238 = DIRECTION ( 'NONE',  ( 0.000000000000000000, 0.000000000000000000, -1.000000000000000000 ) ) ;
#239 = CARTESIAN_POINT ( 'NONE',  ( 4.499999999999999112, 0.1326938576183068208, 3.999999999999998224 ) ) ;
#240 = EDGE_CURVE ( 'NONE', #161, #161, #159, .T. ) ;
#241 = CARTESIAN_POINT ( 'NONE',  ( 4.114790891525037075, 0.7992984857160070344, 3.920434317435800509 ) ) ;
#242 = STYLED_ITEM ( 'NONE', ( #104 ), #90 ) ;
#243 = FACE_OUTER_BOUND ( 'NONE', #191, .T. ) ;
#244 = FACE_OUTER_BOUND ( 'NONE', #211, .T. ) ;
#245 = ADVANCED_FACE ( 'NONE', ( #160, #54 ), #264, .F. ) ;
#246 = VERTEX_POINT ( 'NONE', #43 ) ;
#247 = DIRECTION ( 'NONE',  ( 0.000000000000000000, 0.000000000000000000, 1.000000000000000000 ) ) ;
#248 = AXIS2_PLACEMENT_3D ( 'NONE', #111, #134, #203 ) ;
#249 = CARTESIAN_POINT ( 'NONE',  ( 24.00000000000000000, 0.000000000000000000, 0.000000000000000000 ) ) ;
#250 = CYLINDRICAL_SURFACE ( 'NONE', #133, 6.000000000000001776 ) ;
#251 = CARTESIAN_POINT ( 'NONE',  ( 2.626189573984040848, -0.5034530331280135940, -3.970035785920771332 ) ) ;
#252 = CARTESIAN_POINT ( 'NONE',  ( 3.369617262474888797, 1.000082488561097271, -3.872962047757054993 ) ) ;
#253 = EDGE_CURVE ( 'NONE', #164, #164, #208, .T. ) ;
#254 = APPLICATION_PROTOCOL_DEFINITION ( 'draft international standard', 'automotive_design', 1998, #190 ) ;
#255 = EDGE_LOOP ( 'NONE', ( #212 ) ) ;
#256 =( GEOMETRIC_REPRESENTATION_CONTEXT ( 3 ) GLOBAL_UNCERTAINTY_ASSIGNED_CONTEXT ( ( #228 ) ) GLOBAL_UNIT_ASSIGNED_CONTEXT ( ( #118, #106, #2 ) ) REPRESENTATION_CONTEXT ( 'NONE', 'WORKASPACE' ) );
#257 = PRESENTATION_STYLE_ASSIGNMENT (( #170 ) ) ;
#258 = CARTESIAN_POINT ( 'NONE',  ( 4.003987361266985623, 0.8734646124062879213, -3.903805290755550494 ) ) ;
#259 = CARTESIAN_POINT ( 'NONE',  ( 3.631413683026627925, 1.000069203228642900, 3.872965478013312257 ) ) ;
#260 = CARTESIAN_POINT ( 'NONE',  ( 2.626189573984040848, 0.5034530331280135940, 3.970035785920771332 ) ) ;
#261 = CARTESIAN_POINT ( 'NONE',  ( 4.003987361266985623, -0.8734646124062879213, 3.903805290755550494 ) ) ;
#262 = CARTESIAN_POINT ( 'NONE',  ( 3.237365582616948956, 0.9738476366740637102, 3.879990687364517132 ) ) ;
#263 = DIRECTION ( 'NONE',  ( 0.000000000000000000, 0.000000000000000000, 1.000000000000000000 ) ) ;
#264 = CYLINDRICAL_SURFACE ( 'NONE', #34, 1.000000000000000000 ) ;
#265 = CYLINDRICAL_SURFACE ( 'NONE', #58, 4.000000000000000000 ) ;
#266 = PRODUCT_DEFINITION_SHAPE ( 'NONE', 'NONE',  #182 ) ;
#267 = FACE_OUTER_BOUND ( 'NONE', #63, .T. ) ;
#268 = MECHANICAL_DESIGN_GEOMETRIC_PRESENTATION_REPRESENTATION (  '', ( #242 ), #205 ) ;
#269 = VERTEX_POINT ( 'NONE', #77 ) ;
#270 = CARTESIAN_POINT ( 'NONE',  ( 3.762505313344807423, -0.9737287528308435913, -3.880012529150460576 ) ) ;
#271 = CARTESIAN_POINT ( 'NONE',  ( 25.00000000000000000, 0.000000000000000000, 5.000000000000004441 ) ) ;
#272 = EDGE_LOOP ( 'NONE', ( #236 ) ) ;
#273 = EDGE_LOOP ( 'NONE', ( #227 ) ) ;
#274 = CARTESIAN_POINT ( 'NONE',  ( 4.115105738646330558, 0.7990713521186505464, -3.920483232541134733 ) ) ;
ENDSEC;
END-ISO-10303-21;
