ISO-10303-21;
HEADER;
FILE_DESCRIPTION (( 'STEP AP214' ),
    '1' );
FILE_NAME ('76.04.02.0003.step',
    '2021-04-02T18:00:05',
    ( '' ),
    ( '' ),
    'SwSTEP 2.0',
    'SolidWorks 2021',
    '' );
FILE_SCHEMA (( 'AUTOMOTIVE_DESIGN' ));
ENDSEC;

DATA;
#1 = CARTESIAN_POINT ( 'NONE',  ( 2.488593323249359557, -0.7999039980042521591, -2.891393021344994985 ) ) ;
#2 = CARTESIAN_POINT ( 'NONE',  ( 2.060217614191002689, 0.4914934534635551633, 2.960419820564035742 ) ) ;
#3 = CARTESIAN_POINT ( 'NONE',  ( 2.001378340831781788, -0.4035480795171221269, 2.974317034154170258 ) ) ;
#4 = AXIS2_PLACEMENT_3D ( 'NONE', #227, #40, #256 ) ;
#5 = CARTESIAN_POINT ( 'NONE',  ( 3.499999999999998668, 2.710505431213761085E-17, 3.000000000000000888 ) ) ;
#6 = FACE_OUTER_BOUND ( 'NONE', #177, .T. ) ;
#7 = FACE_OUTER_BOUND ( 'NONE', #71, .T. ) ;
#8 = ORIENTED_EDGE ( 'NONE', *, *, #128, .F. ) ;
#9 = CARTESIAN_POINT ( 'NONE',  ( 3.191890983426895811, 0.6393867984489254308, 2.932023600225241555 ) ) ;
#10 = SURFACE_STYLE_FILL_AREA ( #198 ) ;
#11 = DIRECTION ( 'NONE',  ( -1.000000000000000000, -0.000000000000000000, -0.000000000000000000 ) ) ;
#12 =( NAMED_UNIT ( * ) PLANE_ANGLE_UNIT ( ) SI_UNIT ( $, .RADIAN. ) );
#13 = CARTESIAN_POINT ( 'NONE',  ( 3.192115471481314248, 0.6392230513409553616, -2.932061079536042669 ) ) ;
#14 =( GEOMETRIC_REPRESENTATION_CONTEXT ( 3 ) GLOBAL_UNCERTAINTY_ASSIGNED_CONTEXT ( ( #223 ) ) GLOBAL_UNIT_ASSIGNED_CONTEXT ( ( #76, #121, #267 ) ) REPRESENTATION_CONTEXT ( 'NONE', 'WORKASPACE' ) );
#15 = CARTESIAN_POINT ( 'NONE',  ( 1.921055294625000576, -0.2100908461807645955, -2.994203398438205266 ) ) ;
#16 = UNCERTAINTY_MEASURE_WITH_UNIT (LENGTH_MEASURE( 1.000000000000000082E-05 ), #18, 'distance_accuracy_value', 'NONE');
#17 = CARTESIAN_POINT ( 'NONE',  ( 19.50000000000000355, 0.000000000000000000, 0.000000000000000000 ) ) ;
#18 =( LENGTH_UNIT ( ) NAMED_UNIT ( * ) SI_UNIT ( .MILLI., .METRE. ) );
#19 = CARTESIAN_POINT ( 'NONE',  ( 3.478916365038730696, 0.2104137889722128840, -2.994192765657750499 ) ) ;
#20 =( GEOMETRIC_REPRESENTATION_CONTEXT ( 3 ) GLOBAL_UNCERTAINTY_ASSIGNED_CONTEXT ( ( #16 ) ) GLOBAL_UNIT_ASSIGNED_CONTEXT ( ( #18, #57, #228 ) ) REPRESENTATION_CONTEXT ( 'NONE', 'WORKASPACE' ) );
#21 = CARTESIAN_POINT ( 'NONE',  ( 3.339006520441565318, -0.4923966018059849348, 2.960259088327510391 ) ) ;
#22 = ADVANCED_FACE ( 'NONE', ( #201, #160 ), #63, .T. ) ;
#23 = CARTESIAN_POINT ( 'NONE',  ( 3.398427420106508556, -0.4039601529336269148, 2.974269738162408583 ) ) ;
#24 = CARTESIAN_POINT ( 'NONE',  ( 3.499999999999998668, 0.1062192327973421890, 3.000000000000000888 ) ) ;
#25 = SURFACE_SIDE_STYLE ('',( #214 ) ) ;
#26 = CARTESIAN_POINT ( 'NONE',  ( 3.398330343627649075, 0.4040150630373650631, 2.974248258878045892 ) ) ;
#27 = ORIENTED_EDGE ( 'NONE', *, *, #128, .T. ) ;
#28 = APPLICATION_PROTOCOL_DEFINITION ( 'draft international standard', 'automotive_design', 1998, #143 ) ;
#29 = CARTESIAN_POINT ( 'NONE',  ( 0.9999999999999997780, 0.000000000000000000, 0.000000000000000000 ) ) ;
#30 = CARTESIAN_POINT ( 'NONE',  ( -2.112623243741537060E-16, 0.000000000000000000, 2.000000000000002665 ) ) ;
#31 = CYLINDRICAL_SURFACE ( 'NONE', #205, 4.500000000000000888 ) ;
#32 = FILL_AREA_STYLE_COLOUR ( '', #193 ) ;
#33 = ORIENTED_EDGE ( 'NONE', *, *, #118, .F. ) ;
#34 = CARTESIAN_POINT ( 'NONE',  ( 2.001378340831781788, 0.4035480795171221269, -2.974317034154170258 ) ) ;
#35 = PRODUCT_RELATED_PRODUCT_CATEGORY ( 'part', '', ( #58 ) ) ;
#36 = PRODUCT_CONTEXT ( 'NONE', #60, 'mechanical' ) ;
#37 = CARTESIAN_POINT ( 'NONE',  ( 1.900044693626509185, 0.1050428476239875508, -2.999988081700601494 ) ) ;
#38 =( GEOMETRIC_REPRESENTATION_CONTEXT ( 3 ) GLOBAL_UNCERTAINTY_ASSIGNED_CONTEXT ( ( #238 ) ) GLOBAL_UNIT_ASSIGNED_CONTEXT ( ( #262, #12, #218 ) ) REPRESENTATION_CONTEXT ( 'NONE', 'WORKASPACE' ) );
#39 = DIRECTION ( 'NONE',  ( -1.000000000000000000, -0.000000000000000000, -0.000000000000000000 ) ) ;
#40 = DIRECTION ( 'NONE',  ( 1.000000000000000000, 0.000000000000000000, 0.000000000000000000 ) ) ;
#41 = PRESENTATION_LAYER_ASSIGNMENT (  '', '', ( #159 ) ) ;
#42 = CARTESIAN_POINT ( 'NONE',  ( 3.499999999999998224, -0.1062192327973421335, 3.000000000000001332 ) ) ;
#43 = DIRECTION ( 'NONE',  ( -1.000000000000000000, -0.000000000000000000, -0.000000000000000000 ) ) ;
#44 = CARTESIAN_POINT ( 'NONE',  ( 2.805157936786852879, 0.8000478770550074614, 2.891353212061239741 ) ) ;
#45 = FILL_AREA_STYLE_COLOUR ( '', #109 ) ;
#46 = CARTESIAN_POINT ( 'NONE',  ( 3.192115471481314248, -0.6392230513409553616, 2.932061079536042669 ) ) ;
#47 = ORIENTED_EDGE ( 'NONE', *, *, #154, .T. ) ;
#48 = VERTEX_POINT ( 'NONE', #79 ) ;
#49 = EDGE_LOOP ( 'NONE', ( #174 ) ) ;
#50 = PRODUCT_DEFINITION ( 'UNKNOWN', '', #183, #55 ) ;
#51 = CARTESIAN_POINT ( 'NONE',  ( -1.056311621870768530E-16, 2.000000000000002665, 0.000000000000000000 ) ) ;
#52 = CIRCLE ( 'NONE', #176, 3.000000000000000888 ) ;
#53 = VERTEX_POINT ( 'NONE', #81 ) ;
#54 = AXIS2_PLACEMENT_3D ( 'NONE', #134, #114, #69 ) ;
#55 = PRODUCT_DEFINITION_CONTEXT ( 'detailed design', #143, 'design' ) ;
#56 = CARTESIAN_POINT ( 'NONE',  ( 19.50000000000000355, 0.000000000000000000, 0.000000000000000000 ) ) ;
#57 =( NAMED_UNIT ( * ) PLANE_ANGLE_UNIT ( ) SI_UNIT ( $, .RADIAN. ) );
#58 = PRODUCT ( '76.04.02.0003', '76.04.02.0003', '', ( #36 ) ) ;
#59 = AXIS2_PLACEMENT_3D ( 'NONE', #108, #39, #147 ) ;
#60 = APPLICATION_CONTEXT ( 'automotive_design' ) ;
#61 = CARTESIAN_POINT ( 'NONE',  ( 3.191890983426895811, -0.6393867984489254308, -2.932023600225241555 ) ) ;
#62 = CARTESIAN_POINT ( 'NONE',  ( 3.398427420106508556, 0.4039601529336269148, -2.974269738162408583 ) ) ;
#63 = CONICAL_SURFACE ( 'NONE', #241, 4.000000000000001776, 0.7853981633974466137 ) ;
#64 = AXIS2_PLACEMENT_3D ( 'NONE', #29, #120, #179 ) ;
#65 = DIRECTION ( 'NONE',  ( -1.000000000000000000, -0.000000000000000000, -0.000000000000000000 ) ) ;
#66 = ADVANCED_FACE ( 'NONE', ( #237, #197 ), #250, .T. ) ;
#67 = CARTESIAN_POINT ( 'NONE',  ( 1.921153661830899306, 0.2105270924643564412, -2.994176216504319754 ) ) ;
#68 = CARTESIAN_POINT ( 'NONE',  ( 18.00000000000000000, 0.000000000000000000, 4.500000000000000888 ) ) ;
#69 = DIRECTION ( 'NONE',  ( 0.000000000000000000, 0.000000000000000000, 1.000000000000000000 ) ) ;
#70 = CARTESIAN_POINT ( 'NONE',  ( 2.910183360198649982, 0.7789291159944901066, 2.897408415284752792 ) ) ;
#71 = EDGE_LOOP ( 'NONE', ( #181 ) ) ;
#72 = DIRECTION ( 'NONE',  ( -0.000000000000000000, -0.000000000000000000, 1.000000000000000000 ) ) ;
#73 = PLANE ( 'NONE',  #126 ) ;
#74 = CARTESIAN_POINT ( 'NONE',  ( 2.805394048332756629, -0.7999322656703312662, 2.891385200082222884 ) ) ;
#75 = ORIENTED_EDGE ( 'NONE', *, *, #106, .F. ) ;
#76 =( LENGTH_UNIT ( ) NAMED_UNIT ( * ) SI_UNIT ( .MILLI., .METRE. ) );
#77 = ORIENTED_EDGE ( 'NONE', *, *, #208, .T. ) ;
#78 = EDGE_LOOP ( 'NONE', ( #75 ) ) ;
#79 = CARTESIAN_POINT ( 'NONE',  ( 3.499999999999997335, 0.000000000000000000, 3.000000000000000000 ) ) ;
#80 = FACE_BOUND ( 'NONE', #78, .T. ) ;
#81 = CARTESIAN_POINT ( 'NONE',  ( 3.499999999999997335, -2.407412430484044816E-32, -3.000000000000000000 ) ) ;
#82 = MECHANICAL_DESIGN_GEOMETRIC_PRESENTATION_REPRESENTATION (  '', ( #159 ), #14 ) ;
#83 = ADVANCED_FACE ( 'NONE', ( #261 ), #161, .F. ) ;
#84 = CARTESIAN_POINT ( 'NONE',  ( 18.00000000000000000, 0.000000000000000000, 0.000000000000000000 ) ) ;
#85 = CARTESIAN_POINT ( 'NONE',  ( 2.208373063196236163, 0.6397347159768809188, -2.931965138252623948 ) ) ;
#86 = PRESENTATION_STYLE_ASSIGNMENT (( #130 ) ) ;
#87 = CARTESIAN_POINT ( 'NONE',  ( 3.499999999999998668, -2.710505431213761085E-17, -3.000000000000000888 ) ) ;
#88 = CARTESIAN_POINT ( 'NONE',  ( 2.910985013279371536, -0.7786701935997513147, 2.897477153669222538 ) ) ;
#89 = DIRECTION ( 'NONE',  ( 0.000000000000000000, 0.000000000000000000, 1.000000000000000000 ) ) ;
#90 = ADVANCED_FACE ( 'NONE', ( #232, #6 ), #31, .T. ) ;
#91 = CARTESIAN_POINT ( 'NONE',  ( 3.103276034891882862, -0.6987205349143893462, 2.917788673040720315 ) ) ;
#92 = DIRECTION ( 'NONE',  ( 0.000000000000000000, 0.000000000000000000, 1.000000000000000000 ) ) ;
#93 = CYLINDRICAL_SURFACE ( 'NONE', #132, 0.7999999999999999334 ) ;
#94 = MANIFOLD_SOLID_BREP ( 'Cut-Extrude1', #148 ) ;
#95 = EDGE_LOOP ( 'NONE', ( #195 ) ) ;
#96 = FACE_OUTER_BOUND ( 'NONE', #163, .T. ) ;
#97 = ORIENTED_EDGE ( 'NONE', *, *, #113, .F. ) ;
#98 = AXIS2_PLACEMENT_3D ( 'NONE', #156, #192, #89 ) ;
#99 = EDGE_LOOP ( 'NONE', ( #200 ) ) ;
#100 = PRESENTATION_STYLE_ASSIGNMENT (( #123 ) ) ;
#101 = CARTESIAN_POINT ( 'NONE',  ( 2.595636755072557200, 0.8000674022809903807, -2.891347809711299455 ) ) ;
#102 = CARTESIAN_POINT ( 'NONE',  ( 2.060217614191002689, -0.4914934534635551633, -2.960419820564035742 ) ) ;
#103 = ADVANCED_FACE ( 'NONE', ( #246 ), #73, .F. ) ;
#104 = AXIS2_PLACEMENT_3D ( 'NONE', #203, #202, #243 ) ;
#105 = CARTESIAN_POINT ( 'NONE',  ( 3.103276034891882862, 0.6987205349143893462, -2.917788673040720315 ) ) ;
#106 = EDGE_CURVE ( 'NONE', #175, #175, #52, .T. ) ;
#107 = CARTESIAN_POINT ( 'NONE',  ( 3.499999999999998668, -0.1062192327973421890, -3.000000000000000888 ) ) ;
#108 = CARTESIAN_POINT ( 'NONE',  ( 18.00000000000000000, 0.000000000000000000, 0.000000000000000000 ) ) ;
#109 = COLOUR_RGB ( '',0.7764705882352941346, 0.7568627450980391913, 0.7372549019607843590 ) ;
#110 = CARTESIAN_POINT ( 'NONE',  ( 1.899955451671233142, 0.1043609731723586648, 3.000011879553334815 ) ) ;
#111 = SHAPE_DEFINITION_REPRESENTATION ( #146, #269 ) ;
#112 = CARTESIAN_POINT ( 'NONE',  ( 2.490585074020934542, -0.7792362533643526490, 2.897329895670207378 ) ) ;
#113 = EDGE_CURVE ( 'NONE', #170, #170, #204, .T. ) ;
#114 = DIRECTION ( 'NONE',  ( -1.000000000000000000, -0.000000000000000000, -0.000000000000000000 ) ) ;
#115 = CARTESIAN_POINT ( 'NONE',  ( 3.499999999999998668, 2.710505431213761085E-17, 3.000000000000000888 ) ) ;
#116 = DIRECTION ( 'NONE',  ( 1.000000000000000000, 0.000000000000000000, 0.000000000000000000 ) ) ;
#117 = CARTESIAN_POINT ( 'NONE',  ( 2.488593323249359557, 0.7999039980042521591, 2.891393021344994985 ) ) ;
#118 = EDGE_CURVE ( 'NONE', #53, #53, #260, .T. ) ;
#119 = DIRECTION ( 'NONE',  ( 0.000000000000000000, 0.000000000000000000, 1.000000000000000000 ) ) ;
#120 = DIRECTION ( 'NONE',  ( 1.000000000000000000, 0.000000000000000000, 0.000000000000000000 ) ) ;
#121 =( NAMED_UNIT ( * ) PLANE_ANGLE_UNIT ( ) SI_UNIT ( $, .RADIAN. ) );
#122 = ORIENTED_EDGE ( 'NONE', *, *, #184, .T. ) ;
#123 = SURFACE_STYLE_USAGE ( .BOTH. , #178 ) ;
#124 = EDGE_LOOP ( 'NONE', ( #217 ) ) ;
#125 = CIRCLE ( 'NONE', #244, 4.000000000000001776 ) ;
#126 = AXIS2_PLACEMENT_3D ( 'NONE', #17, #144, #248 ) ;
#127 = CARTESIAN_POINT ( 'NONE',  ( 2.281418850590172465, -0.7129790216509425127, -2.917921559917155960 ) ) ;
#128 = EDGE_CURVE ( 'NONE', #239, #239, #199, .T. ) ;
#129 = CARTESIAN_POINT ( 'NONE',  ( 3.338764023367694733, -0.4926994419101374811, -2.960206940443519841 ) ) ;
#130 = SURFACE_STYLE_USAGE ( .BOTH. , #25 ) ;
#131 = DIRECTION ( 'NONE',  ( 0.000000000000000000, 0.000000000000000000, 1.000000000000000000 ) ) ;
#132 = AXIS2_PLACEMENT_3D ( 'NONE', #173, #72, #233 ) ;
#133 = DIRECTION ( 'NONE',  ( 0.000000000000000000, 0.000000000000000000, 1.000000000000000000 ) ) ;
#134 = CARTESIAN_POINT ( 'NONE',  ( 19.00000000000000355, 0.000000000000000000, 0.000000000000000000 ) ) ;
#135 = CARTESIAN_POINT ( 'NONE',  ( 3.338764023367694733, 0.4926994419101374811, 2.960206940443519841 ) ) ;
#136 = FILL_AREA_STYLE ('',( #45 ) ) ;
#137 = ADVANCED_FACE ( 'NONE', ( #80, #152 ), #165, .F. ) ;
#138 = CYLINDRICAL_SURFACE ( 'NONE', #98, 3.000000000000000000 ) ;
#139 = EDGE_LOOP ( 'NONE', ( #97 ) ) ;
#140 = ORIENTED_EDGE ( 'NONE', *, *, #106, .T. ) ;
#141 = ORIENTED_EDGE ( 'NONE', *, *, #118, .T. ) ;
#142 = CARTESIAN_POINT ( 'NONE',  ( 0.000000000000000000, 0.000000000000000000, 0.000000000000000000 ) ) ;
#143 = APPLICATION_CONTEXT ( 'automotive_design' ) ;
#144 = DIRECTION ( 'NONE',  ( -1.000000000000000000, 0.000000000000000000, -0.000000000000000000 ) ) ;
#145 = CARTESIAN_POINT ( 'NONE',  ( 19.50000000000000355, 0.000000000000000000, 4.000000000000001776 ) ) ;
#146 = PRODUCT_DEFINITION_SHAPE ( 'NONE', 'NONE',  #50 ) ;
#147 = DIRECTION ( 'NONE',  ( 0.000000000000000000, 0.000000000000000000, 1.000000000000000000 ) ) ;
#148 = CLOSED_SHELL ( 'NONE', ( #103, #22, #90, #137, #180, #66, #83, #226 ) ) ;
#149 = AXIS2_PLACEMENT_3D ( 'NONE', #229, #43, #133 ) ;
#150 = CARTESIAN_POINT ( 'NONE',  ( 1.899955451671233142, -0.1043609731723586648, -3.000011879553334815 ) ) ;
#151 = B_SPLINE_CURVE_WITH_KNOTS ( 'NONE', 3,
 ( #5, #42, #249, #23, #21, #46, #91, #88, #74, #172, #112, #252, #236, #155, #3, #171, #231, #110, #211, #215, #2, #251, #117, #44, #70, #157, #9, #135, #26, #213, #24, #115 ),
 .UNSPECIFIED., .T., .F.,
 ( 4, 2, 2, 2, 2, 2, 2, 2, 2, 2, 2, 2, 2, 2, 2, 4 ),
 ( 0.000000000000000000, 0.0003140298225945293968, 0.0006280596451890587935, 0.0009420894677835882445, 0.001256119290378117587, 0.001570149112972647146, 0.001884178935567176489, 0.002198208758161706265, 0.002512238580756236041, 0.002826268403350765384, 0.003140298225945294293, 0.003768357871134353412, 0.004082387693728884055, 0.004396417516323413398, 0.004710447338917943608, 0.005024477161512472950 ),
 .UNSPECIFIED. ) ;
#152 = FACE_OUTER_BOUND ( 'NONE', #99, .T. ) ;
#153 = CARTESIAN_POINT ( 'NONE',  ( 2.001027699453194142, -0.4029028924554883817, -2.974401017704042527 ) ) ;
#154 = EDGE_CURVE ( 'NONE', #264, #264, #164, .T. ) ;
#155 = CARTESIAN_POINT ( 'NONE',  ( 2.060326361021633357, -0.4917064036732171073, 2.960389314151348650 ) ) ;
#156 = CARTESIAN_POINT ( 'NONE',  ( 0.000000000000000000, 0.000000000000000000, 0.000000000000000000 ) ) ;
#157 = CARTESIAN_POINT ( 'NONE',  ( 3.103108391141977229, 0.6988642483624973867, 2.917755105396540927 ) ) ;
#158 = DIRECTION ( 'NONE',  ( -1.000000000000000000, -0.000000000000000000, -0.000000000000000000 ) ) ;
#159 = STYLED_ITEM ( 'NONE', ( #100 ), #269 ) ;
#160 = FACE_BOUND ( 'NONE', #235, .T. ) ;
#161 = PLANE ( 'NONE',  #188 ) ;
#162 = VERTEX_POINT ( 'NONE', #145 ) ;
#163 = EDGE_LOOP ( 'NONE', ( #33 ) ) ;
#164 = CIRCLE ( 'NONE', #54, 4.500000000000000888 ) ;
#165 = PLANE ( 'NONE',  #4 ) ;
#166 = CARTESIAN_POINT ( 'NONE',  ( 2.805157936786852879, -0.8000478770550074614, -2.891353212061239741 ) ) ;
#167 = CARTESIAN_POINT ( 'NONE',  ( 2.060326361021633357, 0.4917064036732171073, -2.960389314151348650 ) ) ;
#168 = CIRCLE ( 'NONE', #149, 2.000000000000002665 ) ;
#169 = CARTESIAN_POINT ( 'NONE',  ( 3.499999999999998668, -2.710505431213761085E-17, -3.000000000000000888 ) ) ;
#170 = VERTEX_POINT ( 'NONE', #68 ) ;
#171 = CARTESIAN_POINT ( 'NONE',  ( 1.921153661830899306, -0.2105270924643564412, 2.994176216504319754 ) ) ;
#172 = CARTESIAN_POINT ( 'NONE',  ( 2.595636755072557200, -0.8000674022809903807, 2.891347809711299455 ) ) ;
#173 = CARTESIAN_POINT ( 'NONE',  ( 2.699999999999997513, -2.407412430484044816E-32, -4.500000000000000888 ) ) ;
#174 = ORIENTED_EDGE ( 'NONE', *, *, #208, .F. ) ;
#175 = VERTEX_POINT ( 'NONE', #210 ) ;
#176 = AXIS2_PLACEMENT_3D ( 'NONE', #84, #245, #206 ) ;
#177 = EDGE_LOOP ( 'NONE', ( #47 ) ) ;
#178 = SURFACE_SIDE_STYLE ('',( #10 ) ) ;
#179 = DIRECTION ( 'NONE',  ( 0.000000000000000000, 0.000000000000000000, -1.000000000000000000 ) ) ;
#180 = ADVANCED_FACE ( 'NONE', ( #212, #191, #230, #196 ), #138, .T. ) ;
#181 = ORIENTED_EDGE ( 'NONE', *, *, #190, .F. ) ;
#182 = CARTESIAN_POINT ( 'NONE',  ( 3.478610621913210466, -0.2113266179072534334, -2.994114549773281286 ) ) ;
#183 = PRODUCT_DEFINITION_FORMATION_WITH_SPECIFIED_SOURCE ( 'ANY', '', #58, .NOT_KNOWN. ) ;
#184 = EDGE_CURVE ( 'NONE', #266, #266, #168, .T. ) ;
#185 = CARTESIAN_POINT ( 'NONE',  ( 19.00000000000000355, 0.000000000000000000, 4.500000000000000888 ) ) ;
#186 = CARTESIAN_POINT ( 'NONE',  ( 3.339006520441565318, 0.4923966018059849348, -2.960259088327510391 ) ) ;
#187 = CARTESIAN_POINT ( 'NONE',  ( 2.490585074020934542, 0.7792362533643526490, -2.897329895670207378 ) ) ;
#188 = AXIS2_PLACEMENT_3D ( 'NONE', #51, #116, #255 ) ;
#189 = CARTESIAN_POINT ( 'NONE',  ( 2.910183360198649982, -0.7789291159944901066, -2.897408415284752792 ) ) ;
#190 = EDGE_CURVE ( 'NONE', #48, #48, #151, .T. ) ;
#191 = FACE_BOUND ( 'NONE', #258, .T. ) ;
#192 = DIRECTION ( 'NONE',  ( -1.000000000000000000, -0.000000000000000000, -0.000000000000000000 ) ) ;
#193 = COLOUR_RGB ( '',0.7764705882352941346, 0.7568627450980391913, 0.7372549019607843590 ) ;
#194 = CARTESIAN_POINT ( 'NONE',  ( 19.50000000000000355, 0.000000000000000000, 0.000000000000000000 ) ) ;
#195 = ORIENTED_EDGE ( 'NONE', *, *, #190, .T. ) ;
#196 = FACE_OUTER_BOUND ( 'NONE', #263, .T. ) ;
#197 = FACE_OUTER_BOUND ( 'NONE', #219, .T. ) ;
#198 = FILL_AREA_STYLE ('',( #32 ) ) ;
#199 = CIRCLE ( 'NONE', #209, 2.999999999999998668 ) ;
#200 = ORIENTED_EDGE ( 'NONE', *, *, #113, .T. ) ;
#201 = FACE_OUTER_BOUND ( 'NONE', #242, .T. ) ;
#202 = DIRECTION ( 'NONE',  ( 0.000000000000000000, 0.000000000000000000, 1.000000000000000000 ) ) ;
#203 = CARTESIAN_POINT ( 'NONE',  ( 0.000000000000000000, 0.000000000000000000, 0.000000000000000000 ) ) ;
#204 = CIRCLE ( 'NONE', #59, 4.500000000000000888 ) ;
#205 = AXIS2_PLACEMENT_3D ( 'NONE', #142, #158, #92 ) ;
#206 = DIRECTION ( 'NONE',  ( 0.000000000000000000, 0.000000000000000000, 1.000000000000000000 ) ) ;
#207 = CARTESIAN_POINT ( 'NONE',  ( 3.398330343627649075, -0.4040150630373650631, -2.974248258878045892 ) ) ;
#208 = EDGE_CURVE ( 'NONE', #162, #162, #125, .T. ) ;
#209 = AXIS2_PLACEMENT_3D ( 'NONE', #247, #65, #265 ) ;
#210 = CARTESIAN_POINT ( 'NONE',  ( 18.00000000000000000, 0.000000000000000000, 3.000000000000000888 ) ) ;
#211 = CARTESIAN_POINT ( 'NONE',  ( 1.921055294625000576, 0.2100908461807645955, 2.994203398438205266 ) ) ;
#212 = FACE_BOUND ( 'NONE', #95, .T. ) ;
#213 = CARTESIAN_POINT ( 'NONE',  ( 3.478610621913210466, 0.2113266179072534334, 2.994114549773281286 ) ) ;
#214 = SURFACE_STYLE_FILL_AREA ( #136 ) ;
#215 = CARTESIAN_POINT ( 'NONE',  ( 2.001027699453194142, 0.4029028924554883817, 2.974401017704042527 ) ) ;
#216 = ORIENTED_EDGE ( 'NONE', *, *, #154, .F. ) ;
#217 = ORIENTED_EDGE ( 'NONE', *, *, #184, .F. ) ;
#218 =( NAMED_UNIT ( * ) SI_UNIT ( $, .STERADIAN. ) SOLID_ANGLE_UNIT ( ) );
#219 = EDGE_LOOP ( 'NONE', ( #27 ) ) ;
#220 = APPLICATION_PROTOCOL_DEFINITION ( 'draft international standard', 'automotive_design', 1998, #60 ) ;
#221 = CARTESIAN_POINT ( 'NONE',  ( 3.499999999999998224, 0.1062192327973421335, -3.000000000000001332 ) ) ;
#222 = MECHANICAL_DESIGN_GEOMETRIC_PRESENTATION_REPRESENTATION (  '', ( #257 ), #20 ) ;
#223 = UNCERTAINTY_MEASURE_WITH_UNIT (LENGTH_MEASURE( 1.000000000000000082E-05 ), #76, 'distance_accuracy_value', 'NONE');
#224 = CARTESIAN_POINT ( 'NONE',  ( 2.805394048332756629, 0.7999322656703312662, -2.891385200082222884 ) ) ;
#225 = CARTESIAN_POINT ( 'NONE',  ( 3.103108391141977229, -0.6988642483624973867, -2.917755105396540927 ) ) ;
#226 = ADVANCED_FACE ( 'NONE', ( #96, #7 ), #93, .F. ) ;
#227 = CARTESIAN_POINT ( 'NONE',  ( 18.00000000000000000, 4.500000000000000888, 0.000000000000000000 ) ) ;
#228 =( NAMED_UNIT ( * ) SI_UNIT ( $, .STERADIAN. ) SOLID_ANGLE_UNIT ( ) );
#229 = CARTESIAN_POINT ( 'NONE',  ( -2.112623243741537060E-16, 0.000000000000000000, 0.000000000000000000 ) ) ;
#230 = FACE_OUTER_BOUND ( 'NONE', #253, .T. ) ;
#231 = CARTESIAN_POINT ( 'NONE',  ( 1.900044693626509185, -0.1050428476239875508, 2.999988081700601494 ) ) ;
#232 = FACE_OUTER_BOUND ( 'NONE', #139, .T. ) ;
#233 = DIRECTION ( 'NONE',  ( 1.000000000000000000, 0.000000000000000000, 0.000000000000000000 ) ) ;
#234 = PRESENTATION_LAYER_ASSIGNMENT (  '', '', ( #257 ) ) ;
#235 = EDGE_LOOP ( 'NONE', ( #77 ) ) ;
#236 = CARTESIAN_POINT ( 'NONE',  ( 2.208373063196236163, -0.6397347159768809188, 2.931965138252623948 ) ) ;
#237 = FACE_BOUND ( 'NONE', #124, .T. ) ;
#238 = UNCERTAINTY_MEASURE_WITH_UNIT (LENGTH_MEASURE( 1.000000000000000082E-05 ), #262, 'distance_accuracy_value', 'NONE');
#239 = VERTEX_POINT ( 'NONE', #259 ) ;
#240 = EDGE_LOOP ( 'NONE', ( #122 ) ) ;
#241 = AXIS2_PLACEMENT_3D ( 'NONE', #56, #11, #119 ) ;
#242 = EDGE_LOOP ( 'NONE', ( #216 ) ) ;
#243 = DIRECTION ( 'NONE',  ( 1.000000000000000000, 0.000000000000000000, 0.000000000000000000 ) ) ;
#244 = AXIS2_PLACEMENT_3D ( 'NONE', #194, #254, #131 ) ;
#245 = DIRECTION ( 'NONE',  ( -1.000000000000000000, -0.000000000000000000, -0.000000000000000000 ) ) ;
#246 = FACE_OUTER_BOUND ( 'NONE', #49, .T. ) ;
#247 = CARTESIAN_POINT ( 'NONE',  ( 0.9999999999999997780, 0.000000000000000000, 0.000000000000000000 ) ) ;
#248 = DIRECTION ( 'NONE',  ( -0.000000000000000000, 0.000000000000000000, 1.000000000000000000 ) ) ;
#249 = CARTESIAN_POINT ( 'NONE',  ( 3.478916365038730696, -0.2104137889722128840, 2.994192765657750499 ) ) ;
#250 = CONICAL_SURFACE ( 'NONE', #64, 2.999999999999998668, 0.7853981633974463916 ) ;
#251 = CARTESIAN_POINT ( 'NONE',  ( 2.281418850590172465, 0.7129790216509425127, 2.917921559917155960 ) ) ;
#252 = CARTESIAN_POINT ( 'NONE',  ( 2.296275808525187756, -0.6986204455912670142, 2.917817529576431479 ) ) ;
#253 = EDGE_LOOP ( 'NONE', ( #8 ) ) ;
#254 = DIRECTION ( 'NONE',  ( -1.000000000000000000, -0.000000000000000000, -0.000000000000000000 ) ) ;
#255 = DIRECTION ( 'NONE',  ( 0.000000000000000000, 0.000000000000000000, -1.000000000000000000 ) ) ;
#256 = DIRECTION ( 'NONE',  ( 0.000000000000000000, 0.000000000000000000, -1.000000000000000000 ) ) ;
#257 = STYLED_ITEM ( 'NONE', ( #86 ), #94 ) ;
#258 = EDGE_LOOP ( 'NONE', ( #141 ) ) ;
#259 = CARTESIAN_POINT ( 'NONE',  ( 0.9999999999999997780, 0.000000000000000000, 2.999999999999998668 ) ) ;
#260 = B_SPLINE_CURVE_WITH_KNOTS ( 'NONE', 3,
 ( #87, #221, #19, #62, #186, #13, #105, #268, #224, #101, #187, #270, #85, #167, #34, #67, #37, #150, #15, #153, #102, #127, #1, #166, #189, #225, #61, #129, #207, #182, #107, #169 ),
 .UNSPECIFIED., .T., .F.,
 ( 4, 2, 2, 2, 2, 2, 2, 2, 2, 2, 2, 2, 2, 2, 2, 4 ),
 ( 0.000000000000000000, 0.0003140298225945293968, 0.0006280596451890587935, 0.0009420894677835882445, 0.001256119290378117587, 0.001570149112972647146, 0.001884178935567176489, 0.002198208758161706265, 0.002512238580756236041, 0.002826268403350765384, 0.003140298225945294293, 0.003768357871134353412, 0.004082387693728884055, 0.004396417516323413398, 0.004710447338917943608, 0.005024477161512472950 ),
 .UNSPECIFIED. ) ;
#261 = FACE_OUTER_BOUND ( 'NONE', #240, .T. ) ;
#262 =( LENGTH_UNIT ( ) NAMED_UNIT ( * ) SI_UNIT ( .MILLI., .METRE. ) );
#263 = EDGE_LOOP ( 'NONE', ( #140 ) ) ;
#264 = VERTEX_POINT ( 'NONE', #185 ) ;
#265 = DIRECTION ( 'NONE',  ( 0.000000000000000000, 0.000000000000000000, 1.000000000000000000 ) ) ;
#266 = VERTEX_POINT ( 'NONE', #30 ) ;
#267 =( NAMED_UNIT ( * ) SI_UNIT ( $, .STERADIAN. ) SOLID_ANGLE_UNIT ( ) );
#268 = CARTESIAN_POINT ( 'NONE',  ( 2.910985013279371536, 0.7786701935997513147, -2.897477153669222538 ) ) ;
#269 = ADVANCED_BREP_SHAPE_REPRESENTATION ( '76.04.02.0003', ( #94, #104 ), #38 ) ;
#270 = CARTESIAN_POINT ( 'NONE',  ( 2.296275808525187756, 0.6986204455912670142, -2.917817529576431479 ) ) ;
ENDSEC;
END-ISO-10303-21;
