ISO-10303-21;
HEADER;
FILE_DESCRIPTION (( 'STEP AP214' ),
    '1' );
FILE_NAME ('76.04.02.0002.step',
    '2021-04-02T18:00:03',
    ( '' ),
    ( '' ),
    'SwSTEP 2.0',
    'SolidWorks 2021',
    '' );
FILE_SCHEMA (( 'AUTOMOTIVE_DESIGN' ));
ENDSEC;

DATA;
#1 = CARTESIAN_POINT ( 'NONE',  ( 2.439485991796681130, 0.4465514287584768094, -2.461585287686177459 ) ) ;
#2 = CARTESIAN_POINT ( 'NONE',  ( 2.831713795300136116, -0.5000930959761533678, -2.449470739651555817 ) ) ;
#3 = CARTESIAN_POINT ( 'NONE',  ( 2.567580345503921890, -0.4999066549052132435, -2.449508796765922813 ) ) ;
#4 = AXIS2_PLACEMENT_3D ( 'NONE', #11, #88, #163 ) ;
#5 = CARTESIAN_POINT ( 'NONE',  ( 15.00000000000000000, 0.000000000000000000, 4.000000000000000000 ) ) ;
#6 = CIRCLE ( 'NONE', #38, 2.500000000000000444 ) ;
#7 =( GEOMETRIC_REPRESENTATION_CONTEXT ( 3 ) GLOBAL_UNCERTAINTY_ASSIGNED_CONTEXT ( ( #105 ) ) GLOBAL_UNIT_ASSIGNED_CONTEXT ( ( #80, #156, #207 ) ) REPRESENTATION_CONTEXT ( 'NONE', 'WORKASPACE' ) );
#8 = FACE_OUTER_BOUND ( 'NONE', #71, .T. ) ;
#9 = ORIENTED_EDGE ( 'NONE', *, *, #183, .T. ) ;
#10 = ORIENTED_EDGE ( 'NONE', *, *, #75, .F. ) ;
#11 = CARTESIAN_POINT ( 'NONE',  ( 0.000000000000000000, 0.000000000000000000, 0.000000000000000000 ) ) ;
#12 = ADVANCED_FACE ( 'NONE', ( #192, #8 ), #217, .T. ) ;
#13 = ORIENTED_EDGE ( 'NONE', *, *, #189, .F. ) ;
#14 = CARTESIAN_POINT ( 'NONE',  ( 16.50000000000000000, 0.000000000000000000, 0.000000000000000000 ) ) ;
#15 = CARTESIAN_POINT ( 'NONE',  ( 2.254037979103589162, 0.2609847209593670336, 2.488086150295514720 ) ) ;
#16 = CONICAL_SURFACE ( 'NONE', #166, 3.499999999999999556, 0.7853981633974482790 ) ;
#17 =( NAMED_UNIT ( * ) PLANE_ANGLE_UNIT ( ) SI_UNIT ( $, .RADIAN. ) );
#18 = CARTESIAN_POINT ( 'NONE',  ( 0.7999999999999998224, 0.000000000000000000, 0.000000000000000000 ) ) ;
#19 = CARTESIAN_POINT ( 'NONE',  ( 3.145504019641935933, -0.2616304439484700151, 2.488007600895258076 ) ) ;
#20 = FACE_OUTER_BOUND ( 'NONE', #196, .T. ) ;
#21 = CARTESIAN_POINT ( 'NONE',  ( 16.50000000000000000, 0.000000000000000000, 3.499999999999999556 ) ) ;
#22 = CARTESIAN_POINT ( 'NONE',  ( 2.699999999999999289, -2.407412430484044816E-32, -4.000000000000000000 ) ) ;
#23 = CARTESIAN_POINT ( 'NONE',  ( 0.000000000000000000, 0.000000000000000000, 0.000000000000000000 ) ) ;
#24 = DIRECTION ( 'NONE',  ( -1.000000000000000000, -0.000000000000000000, -0.000000000000000000 ) ) ;
#25 = PRODUCT ( '76.04.02.0002', '76.04.02.0002', '', ( #228 ) ) ;
#26 = EDGE_LOOP ( 'NONE', ( #9 ) ) ;
#27 = PRESENTATION_LAYER_ASSIGNMENT (  '', '', ( #66 ) ) ;
#28 = FACE_OUTER_BOUND ( 'NONE', #194, .T. ) ;
#29 = CARTESIAN_POINT ( 'NONE',  ( 0.000000000000000000, 0.000000000000000000, 0.000000000000000000 ) ) ;
#30 = EDGE_LOOP ( 'NONE', ( #69 ) ) ;
#31 = ADVANCED_FACE ( 'NONE', ( #161, #102 ), #54, .T. ) ;
#32 = CARTESIAN_POINT ( 'NONE',  ( 0.7999999999999998224, 0.000000000000000000, 0.000000000000000000 ) ) ;
#33 = CARTESIAN_POINT ( 'NONE',  ( 15.00000000000000000, 0.000000000000000000, 0.000000000000000000 ) ) ;
#34 = CARTESIAN_POINT ( 'NONE',  ( 3.199999999999999734, 1.355252715606880543E-17, 2.500000000000000000 ) ) ;
#35 = CARTESIAN_POINT ( 'NONE',  ( 3.199999999999998845, 0.1324873057991781122, -2.499999999999999112 ) ) ;
#36 = DIRECTION ( 'NONE',  ( 1.000000000000000000, 0.000000000000000000, 0.000000000000000000 ) ) ;
#37 = CARTESIAN_POINT ( 'NONE',  ( 0.000000000000000000, 0.000000000000000000, 1.700000000000001066 ) ) ;
#38 = AXIS2_PLACEMENT_3D ( 'NONE', #179, #177, #122 ) ;
#39 = MECHANICAL_DESIGN_GEOMETRIC_PRESENTATION_REPRESENTATION (  '', ( #66 ), #98 ) ;
#40 = CARTESIAN_POINT ( 'NONE',  ( 0.7999999999999998224, 0.000000000000000000, 2.499999999999998224 ) ) ;
#41 = FILL_AREA_STYLE_COLOUR ( '', #87 ) ;
#42 = CARTESIAN_POINT ( 'NONE',  ( 16.00000000000000000, 0.000000000000000000, 4.000000000000000000 ) ) ;
#43 =( LENGTH_UNIT ( ) NAMED_UNIT ( * ) SI_UNIT ( .MILLI., .METRE. ) );
#44 = EDGE_LOOP ( 'NONE', ( #213 ) ) ;
#45 = EDGE_CURVE ( 'NONE', #187, #187, #6, .T. ) ;
#46 =( NAMED_UNIT ( * ) PLANE_ANGLE_UNIT ( ) SI_UNIT ( $, .RADIAN. ) );
#47 = ORIENTED_EDGE ( 'NONE', *, *, #96, .F. ) ;
#48 = AXIS2_PLACEMENT_3D ( 'NONE', #97, #24, #225 ) ;
#49 = CIRCLE ( 'NONE', #77, 2.499999999999998224 ) ;
#50 = UNCERTAINTY_MEASURE_WITH_UNIT (LENGTH_MEASURE( 1.000000000000000082E-05 ), #43, 'distance_accuracy_value', 'NONE');
#51 = DIRECTION ( 'NONE',  ( 0.000000000000000000, 0.000000000000000000, 1.000000000000000000 ) ) ;
#52 = EDGE_LOOP ( 'NONE', ( #104 ) ) ;
#53 = CARTESIAN_POINT ( 'NONE',  ( 0.000000000000000000, 0.000000000000000000, 0.000000000000000000 ) ) ;
#54 = CONICAL_SURFACE ( 'NONE', #185, 2.499999999999998224, 0.7853981633974467247 ) ;
#55 = DIRECTION ( 'NONE',  ( -1.000000000000000000, 0.000000000000000000, -0.000000000000000000 ) ) ;
#56 = CARTESIAN_POINT ( 'NONE',  ( 15.00000000000000000, 4.000000000000000000, 0.000000000000000000 ) ) ;
#57 =( LENGTH_UNIT ( ) NAMED_UNIT ( * ) SI_UNIT ( .MILLI., .METRE. ) );
#58 = AXIS2_PLACEMENT_3D ( 'NONE', #230, #106, #51 ) ;
#59 = DIRECTION ( 'NONE',  ( 0.000000000000000000, 0.000000000000000000, -1.000000000000000000 ) ) ;
#60 = CARTESIAN_POINT ( 'NONE',  ( 2.253564455545263634, 0.2607125460038317022, -2.488139721847524299 ) ) ;
#61 = EDGE_CURVE ( 'NONE', #64, #64, #191, .T. ) ;
#62 = CYLINDRICAL_SURFACE ( 'NONE', #130, 0.5000000000000000000 ) ;
#63 = CARTESIAN_POINT ( 'NONE',  ( 3.199999999999999734, -1.355252715606880543E-17, -2.500000000000000000 ) ) ;
#64 = VERTEX_POINT ( 'NONE', #21 ) ;
#65 = FACE_BOUND ( 'NONE', #30, .T. ) ;
#66 = STYLED_ITEM ( 'NONE', ( #90 ), #81 ) ;
#67 = EDGE_LOOP ( 'NONE', ( #10 ) ) ;
#68 = SHAPE_DEFINITION_REPRESENTATION ( #210, #146 ) ;
#69 = ORIENTED_EDGE ( 'NONE', *, *, #115, .T. ) ;
#70 = ADVANCED_FACE ( 'NONE', ( #28, #142 ), #16, .T. ) ;
#71 = EDGE_LOOP ( 'NONE', ( #190 ) ) ;
#72 = EDGE_LOOP ( 'NONE', ( #236 ) ) ;
#73 = FILL_AREA_STYLE_COLOUR ( '', #232 ) ;
#74 = APPLICATION_CONTEXT ( 'automotive_design' ) ;
#75 = EDGE_CURVE ( 'NONE', #117, #117, #124, .T. ) ;
#76 = CARTESIAN_POINT ( 'NONE',  ( 2.961496328499957809, 0.4455827542655097506, -2.461724663810803460 ) ) ;
#77 = AXIS2_PLACEMENT_3D ( 'NONE', #18, #200, #92 ) ;
#78 = VERTEX_POINT ( 'NONE', #153 ) ;
#79 = FACE_OUTER_BOUND ( 'NONE', #123, .T. ) ;
#80 =( LENGTH_UNIT ( ) NAMED_UNIT ( * ) SI_UNIT ( .MILLI., .METRE. ) );
#81 = MANIFOLD_SOLID_BREP ( 'Cut-Extrude1', #129 ) ;
#82 = ADVANCED_FACE ( 'NONE', ( #167 ), #234, .F. ) ;
#83 = APPLICATION_CONTEXT ( 'automotive_design' ) ;
#84 = DIRECTION ( 'NONE',  ( 0.000000000000000000, 0.000000000000000000, 1.000000000000000000 ) ) ;
#85 = ORIENTED_EDGE ( 'NONE', *, *, #115, .F. ) ;
#86 = DIRECTION ( 'NONE',  ( 0.000000000000000000, 0.000000000000000000, 1.000000000000000000 ) ) ;
#87 = COLOUR_RGB ( '',0.7764705882352941346, 0.7568627450980391913, 0.7372549019607843590 ) ;
#88 = DIRECTION ( 'NONE',  ( -1.000000000000000000, -0.000000000000000000, -0.000000000000000000 ) ) ;
#89 = DIRECTION ( 'NONE',  ( -1.000000000000000000, -0.000000000000000000, -0.000000000000000000 ) ) ;
#90 = PRESENTATION_STYLE_ASSIGNMENT (( #151 ) ) ;
#91 = CARTESIAN_POINT ( 'NONE',  ( 2.961301387455566925, 0.4456680978050124864, 2.461704494234577378 ) ) ;
#92 = DIRECTION ( 'NONE',  ( 0.000000000000000000, 0.000000000000000000, 1.000000000000000000 ) ) ;
#93 = DIRECTION ( 'NONE',  ( -1.000000000000000000, -0.000000000000000000, -0.000000000000000000 ) ) ;
#94 = CARTESIAN_POINT ( 'NONE',  ( 3.145277868219310768, 0.2619658156351857281, 2.487967640821406867 ) ) ;
#95 = CARTESIAN_POINT ( 'NONE',  ( 15.00000000000000000, 0.000000000000000000, 2.500000000000000444 ) ) ;
#96 = EDGE_CURVE ( 'NONE', #138, #138, #197, .T. ) ;
#97 = CARTESIAN_POINT ( 'NONE',  ( 16.00000000000000000, 0.000000000000000000, 0.000000000000000000 ) ) ;
#98 =( GEOMETRIC_REPRESENTATION_CONTEXT ( 3 ) GLOBAL_UNCERTAINTY_ASSIGNED_CONTEXT ( ( #212 ) ) GLOBAL_UNIT_ASSIGNED_CONTEXT ( ( #57, #17, #218 ) ) REPRESENTATION_CONTEXT ( 'NONE', 'WORKASPACE' ) );
#99 = CARTESIAN_POINT ( 'NONE',  ( 2.961301387455566925, -0.4456680978050124864, -2.461704494234577378 ) ) ;
#100 = ADVANCED_FACE ( 'NONE', ( #242 ), #237, .F. ) ;
#101 = SURFACE_STYLE_FILL_AREA ( #121 ) ;
#102 = FACE_OUTER_BOUND ( 'NONE', #26, .T. ) ;
#103 = DIRECTION ( 'NONE',  ( 0.000000000000000000, 0.000000000000000000, 1.000000000000000000 ) ) ;
#104 = ORIENTED_EDGE ( 'NONE', *, *, #61, .T. ) ;
#105 = UNCERTAINTY_MEASURE_WITH_UNIT (LENGTH_MEASURE( 1.000000000000000082E-05 ), #80, 'distance_accuracy_value', 'NONE');
#106 = DIRECTION ( 'NONE',  ( -1.000000000000000000, -0.000000000000000000, -0.000000000000000000 ) ) ;
#107 = EDGE_LOOP ( 'NONE', ( #233 ) ) ;
#108 = ORIENTED_EDGE ( 'NONE', *, *, #45, .F. ) ;
#109 = CARTESIAN_POINT ( 'NONE',  ( 3.200000000000000622, 0.1324873057991781400, 2.500000000000000888 ) ) ;
#110 = CARTESIAN_POINT ( 'NONE',  ( 2.567580345503921890, 0.4999066549052132435, 2.449508796765922813 ) ) ;
#111 = FACE_BOUND ( 'NONE', #231, .T. ) ;
#112 = CARTESIAN_POINT ( 'NONE',  ( 3.145504019641935933, 0.2616304439484700151, -2.488007600895258076 ) ) ;
#113 = CARTESIAN_POINT ( 'NONE',  ( 2.199947079138411699, -0.1304938726809627414, -2.500010584171482364 ) ) ;
#114 = DIRECTION ( 'NONE',  ( -1.000000000000000000, -0.000000000000000000, -0.000000000000000000 ) ) ;
#115 = EDGE_CURVE ( 'NONE', #78, #78, #135, .T. ) ;
#116 = VERTEX_POINT ( 'NONE', #42 ) ;
#117 = VERTEX_POINT ( 'NONE', #37 ) ;
#118 = CARTESIAN_POINT ( 'NONE',  ( 2.438242713232575909, -0.4455090026928817948, -2.461748858918427540 ) ) ;
#119 = ADVANCED_FACE ( 'NONE', ( #111, #136 ), #134, .F. ) ;
#120 = AXIS2_PLACEMENT_3D ( 'NONE', #53, #103, #127 ) ;
#121 = FILL_AREA_STYLE ('',( #41 ) ) ;
#122 = DIRECTION ( 'NONE',  ( 0.000000000000000000, 0.000000000000000000, 1.000000000000000000 ) ) ;
#123 = EDGE_LOOP ( 'NONE', ( #13 ) ) ;
#124 = CIRCLE ( 'NONE', #4, 1.700000000000001066 ) ;
#125 = AXIS2_PLACEMENT_3D ( 'NONE', #23, #114, #229 ) ;
#126 = EDGE_LOOP ( 'NONE', ( #175 ) ) ;
#127 = DIRECTION ( 'NONE',  ( 1.000000000000000000, 0.000000000000000000, 0.000000000000000000 ) ) ;
#128 = EDGE_LOOP ( 'NONE', ( #47 ) ) ;
#129 = CLOSED_SHELL ( 'NONE', ( #82, #70, #12, #119, #209, #31, #100, #240 ) ) ;
#130 = AXIS2_PLACEMENT_3D ( 'NONE', #22, #172, #139 ) ;
#131 = CARTESIAN_POINT ( 'NONE',  ( 2.831095826854612696, -0.4999220490620657764, 2.449505654448818515 ) ) ;
#132 = CARTESIAN_POINT ( 'NONE',  ( 2.569499459184383383, -0.5000777737551841406, 2.449473867284810868 ) ) ;
#133 = CIRCLE ( 'NONE', #48, 4.000000000000000000 ) ;
#134 = PLANE ( 'NONE',  #150 ) ;
#135 = B_SPLINE_CURVE_WITH_KNOTS ( 'NONE', 3,
 ( #147, #168, #19, #219, #131, #132, #148, #241, #182, #221, #15, #239, #110, #220, #91, #94, #109, #34 ),
 .UNSPECIFIED., .T., .F.,
 ( 4, 2, 2, 2, 2, 2, 2, 2, 4 ),
 ( 0.000000000000000000, 0.0003917458393949296326, 0.0007834916787898592652, 0.001175237518184788898, 0.001566983357579718530, 0.001958729196974648163, 0.002350475036369577796, 0.002742220875764507428, 0.003133966715159437061 ),
 .UNSPECIFIED. ) ;
#136 = FACE_OUTER_BOUND ( 'NONE', #107, .T. ) ;
#137 = VERTEX_POINT ( 'NONE', #173 ) ;
#138 = VERTEX_POINT ( 'NONE', #5 ) ;
#139 = DIRECTION ( 'NONE',  ( 1.000000000000000000, 0.000000000000000000, 0.000000000000000000 ) ) ;
#140 = APPLICATION_PROTOCOL_DEFINITION ( 'draft international standard', 'automotive_design', 1998, #83 ) ;
#141 =( NAMED_UNIT ( * ) SI_UNIT ( $, .STERADIAN. ) SOLID_ANGLE_UNIT ( ) );
#142 = FACE_BOUND ( 'NONE', #52, .T. ) ;
#143 = AXIS2_PLACEMENT_3D ( 'NONE', #33, #93, #180 ) ;
#144 = EDGE_LOOP ( 'NONE', ( #215 ) ) ;
#145 = FILL_AREA_STYLE ('',( #73 ) ) ;
#146 = ADVANCED_BREP_SHAPE_REPRESENTATION ( '76.04.02.0002', ( #81, #120 ), #7 ) ;
#147 = CARTESIAN_POINT ( 'NONE',  ( 3.199999999999999734, 1.355252715606880543E-17, 2.500000000000000000 ) ) ;
#148 = CARTESIAN_POINT ( 'NONE',  ( 2.439485991796681130, -0.4465514287584768094, 2.461585287686177459 ) ) ;
#149 = CARTESIAN_POINT ( 'NONE',  ( 0.000000000000000000, 1.700000000000001066, 0.000000000000000000 ) ) ;
#150 = AXIS2_PLACEMENT_3D ( 'NONE', #56, #36, #59 ) ;
#151 = SURFACE_STYLE_USAGE ( .BOTH. , #201 ) ;
#152 = SURFACE_STYLE_USAGE ( .BOTH. , #174 ) ;
#153 = CARTESIAN_POINT ( 'NONE',  ( 3.199999999999999289, 0.000000000000000000, 2.499999999999999556 ) ) ;
#154 = VERTEX_POINT ( 'NONE', #40 ) ;
#155 = AXIS2_PLACEMENT_3D ( 'NONE', #14, #55, #198 ) ;
#156 =( NAMED_UNIT ( * ) PLANE_ANGLE_UNIT ( ) SI_UNIT ( $, .RADIAN. ) );
#157 = FACE_BOUND ( 'NONE', #159, .T. ) ;
#158 = MECHANICAL_DESIGN_GEOMETRIC_PRESENTATION_REPRESENTATION (  '', ( #222 ), #181 ) ;
#159 = EDGE_LOOP ( 'NONE', ( #160 ) ) ;
#160 = ORIENTED_EDGE ( 'NONE', *, *, #189, .T. ) ;
#161 = FACE_BOUND ( 'NONE', #67, .T. ) ;
#162 = AXIS2_PLACEMENT_3D ( 'NONE', #29, #164, #84 ) ;
#163 = DIRECTION ( 'NONE',  ( 0.000000000000000000, 0.000000000000000000, 1.000000000000000000 ) ) ;
#164 = DIRECTION ( 'NONE',  ( -1.000000000000000000, -0.000000000000000000, -0.000000000000000000 ) ) ;
#165 = DIRECTION ( 'NONE',  ( 0.000000000000000000, 0.000000000000000000, -1.000000000000000000 ) ) ;
#166 = AXIS2_PLACEMENT_3D ( 'NONE', #178, #89, #86 ) ;
#167 = FACE_OUTER_BOUND ( 'NONE', #72, .T. ) ;
#168 = CARTESIAN_POINT ( 'NONE',  ( 3.199999999999998845, -0.1324873057991781122, 2.499999999999999112 ) ) ;
#169 = PRODUCT_DEFINITION_FORMATION_WITH_SPECIFIED_SOURCE ( 'ANY', '', #25, .NOT_KNOWN. ) ;
#170 = CARTESIAN_POINT ( 'NONE',  ( 2.831095826854612696, 0.4999220490620657764, -2.449505654448818515 ) ) ;
#171 = CARTESIAN_POINT ( 'NONE',  ( 3.200000000000000622, -0.1324873057991781400, -2.500000000000000888 ) ) ;
#172 = DIRECTION ( 'NONE',  ( -0.000000000000000000, -0.000000000000000000, 1.000000000000000000 ) ) ;
#173 = CARTESIAN_POINT ( 'NONE',  ( 3.199999999999999289, -2.407412430484044816E-32, -2.499999999999999556 ) ) ;
#174 = SURFACE_SIDE_STYLE ('',( #101 ) ) ;
#175 = ORIENTED_EDGE ( 'NONE', *, *, #183, .F. ) ;
#176 = ORIENTED_EDGE ( 'NONE', *, *, #203, .F. ) ;
#177 = DIRECTION ( 'NONE',  ( -1.000000000000000000, -0.000000000000000000, -0.000000000000000000 ) ) ;
#178 = CARTESIAN_POINT ( 'NONE',  ( 16.50000000000000000, 0.000000000000000000, 0.000000000000000000 ) ) ;
#179 = CARTESIAN_POINT ( 'NONE',  ( 15.00000000000000000, 0.000000000000000000, 0.000000000000000000 ) ) ;
#180 = DIRECTION ( 'NONE',  ( 0.000000000000000000, 0.000000000000000000, 1.000000000000000000 ) ) ;
#181 =( GEOMETRIC_REPRESENTATION_CONTEXT ( 3 ) GLOBAL_UNCERTAINTY_ASSIGNED_CONTEXT ( ( #50 ) ) GLOBAL_UNIT_ASSIGNED_CONTEXT ( ( #43, #46, #141 ) ) REPRESENTATION_CONTEXT ( 'NONE', 'WORKASPACE' ) );
#182 = CARTESIAN_POINT ( 'NONE',  ( 2.200053002966560811, -0.1308991009393400684, 2.499989399407521962 ) ) ;
#183 = EDGE_CURVE ( 'NONE', #154, #154, #49, .T. ) ;
#184 = DIRECTION ( 'NONE',  ( 1.000000000000000000, 0.000000000000000000, 0.000000000000000000 ) ) ;
#185 = AXIS2_PLACEMENT_3D ( 'NONE', #32, #195, #214 ) ;
#186 = FACE_OUTER_BOUND ( 'NONE', #126, .T. ) ;
#187 = VERTEX_POINT ( 'NONE', #95 ) ;
#188 = CARTESIAN_POINT ( 'NONE',  ( 3.145277868219310768, -0.2619658156351857281, -2.487967640821406867 ) ) ;
#189 = EDGE_CURVE ( 'NONE', #137, #137, #216, .T. ) ;
#190 = ORIENTED_EDGE ( 'NONE', *, *, #203, .T. ) ;
#191 = CIRCLE ( 'NONE', #58, 3.499999999999999556 ) ;
#192 = FACE_OUTER_BOUND ( 'NONE', #128, .T. ) ;
#193 = PRODUCT_DEFINITION_CONTEXT ( 'detailed design', #83, 'design' ) ;
#194 = EDGE_LOOP ( 'NONE', ( #176 ) ) ;
#195 = DIRECTION ( 'NONE',  ( 1.000000000000000000, 0.000000000000000000, 0.000000000000000000 ) ) ;
#196 = EDGE_LOOP ( 'NONE', ( #85 ) ) ;
#197 = CIRCLE ( 'NONE', #143, 4.000000000000000000 ) ;
#198 = DIRECTION ( 'NONE',  ( -0.000000000000000000, 0.000000000000000000, 1.000000000000000000 ) ) ;
#199 = PRODUCT_RELATED_PRODUCT_CATEGORY ( 'part', '', ( #25 ) ) ;
#200 = DIRECTION ( 'NONE',  ( -1.000000000000000000, -0.000000000000000000, -0.000000000000000000 ) ) ;
#201 = SURFACE_SIDE_STYLE ('',( #211 ) ) ;
#202 = CARTESIAN_POINT ( 'NONE',  ( 3.199999999999999734, -1.355252715606880543E-17, -2.500000000000000000 ) ) ;
#203 = EDGE_CURVE ( 'NONE', #116, #116, #133, .T. ) ;
#204 = CARTESIAN_POINT ( 'NONE',  ( 2.200053002966560811, 0.1308991009393400684, -2.499989399407521962 ) ) ;
#205 = CARTESIAN_POINT ( 'NONE',  ( 2.254037979103589162, -0.2609847209593670336, -2.488086150295514720 ) ) ;
#206 = CYLINDRICAL_SURFACE ( 'NONE', #125, 2.499999999999999556 ) ;
#207 =( NAMED_UNIT ( * ) SI_UNIT ( $, .STERADIAN. ) SOLID_ANGLE_UNIT ( ) );
#208 = APPLICATION_PROTOCOL_DEFINITION ( 'draft international standard', 'automotive_design', 1998, #74 ) ;
#209 = ADVANCED_FACE ( 'NONE', ( #65, #157, #186, #227 ), #206, .T. ) ;
#210 = PRODUCT_DEFINITION_SHAPE ( 'NONE', 'NONE',  #235 ) ;
#211 = SURFACE_STYLE_FILL_AREA ( #145 ) ;
#212 = UNCERTAINTY_MEASURE_WITH_UNIT (LENGTH_MEASURE( 1.000000000000000082E-05 ), #57, 'distance_accuracy_value', 'NONE');
#213 = ORIENTED_EDGE ( 'NONE', *, *, #75, .T. ) ;
#214 = DIRECTION ( 'NONE',  ( 0.000000000000000000, 0.000000000000000000, -1.000000000000000000 ) ) ;
#215 = ORIENTED_EDGE ( 'NONE', *, *, #45, .T. ) ;
#216 = B_SPLINE_CURVE_WITH_KNOTS ( 'NONE', 3,
 ( #202, #35, #112, #76, #170, #223, #1, #60, #204, #113, #205, #118, #3, #2, #99, #188, #171, #63 ),
 .UNSPECIFIED., .T., .F.,
 ( 4, 2, 2, 2, 2, 2, 2, 2, 4 ),
 ( 0.000000000000000000, 0.0003917458393949296326, 0.0007834916787898592652, 0.001175237518184788898, 0.001566983357579718530, 0.001958729196974648163, 0.002350475036369577796, 0.002742220875764507428, 0.003133966715159437061 ),
 .UNSPECIFIED. ) ;
#217 = CYLINDRICAL_SURFACE ( 'NONE', #162, 4.000000000000000000 ) ;
#218 =( NAMED_UNIT ( * ) SI_UNIT ( $, .STERADIAN. ) SOLID_ANGLE_UNIT ( ) );
#219 = CARTESIAN_POINT ( 'NONE',  ( 2.961496328499957809, -0.4455827542655097506, 2.461724663810803460 ) ) ;
#220 = CARTESIAN_POINT ( 'NONE',  ( 2.831713795300136116, 0.5000930959761533678, 2.449470739651555817 ) ) ;
#221 = CARTESIAN_POINT ( 'NONE',  ( 2.199947079138411699, 0.1304938726809627414, 2.500010584171482364 ) ) ;
#222 = STYLED_ITEM ( 'NONE', ( #224 ), #146 ) ;
#223 = CARTESIAN_POINT ( 'NONE',  ( 2.569499459184383383, 0.5000777737551841406, -2.449473867284810868 ) ) ;
#224 = PRESENTATION_STYLE_ASSIGNMENT (( #152 ) ) ;
#225 = DIRECTION ( 'NONE',  ( 0.000000000000000000, 0.000000000000000000, 1.000000000000000000 ) ) ;
#226 = PRESENTATION_LAYER_ASSIGNMENT (  '', '', ( #222 ) ) ;
#227 = FACE_OUTER_BOUND ( 'NONE', #144, .T. ) ;
#228 = PRODUCT_CONTEXT ( 'NONE', #74, 'mechanical' ) ;
#229 = DIRECTION ( 'NONE',  ( 0.000000000000000000, 0.000000000000000000, 1.000000000000000000 ) ) ;
#230 = CARTESIAN_POINT ( 'NONE',  ( 16.50000000000000000, 0.000000000000000000, 0.000000000000000000 ) ) ;
#231 = EDGE_LOOP ( 'NONE', ( #108 ) ) ;
#232 = COLOUR_RGB ( '',0.7764705882352941346, 0.7568627450980391913, 0.7372549019607843590 ) ;
#233 = ORIENTED_EDGE ( 'NONE', *, *, #96, .T. ) ;
#234 = PLANE ( 'NONE',  #155 ) ;
#235 = PRODUCT_DEFINITION ( 'UNKNOWN', '', #169, #193 ) ;
#236 = ORIENTED_EDGE ( 'NONE', *, *, #61, .F. ) ;
#237 = PLANE ( 'NONE',  #238 ) ;
#238 = AXIS2_PLACEMENT_3D ( 'NONE', #149, #184, #165 ) ;
#239 = CARTESIAN_POINT ( 'NONE',  ( 2.438242713232575909, 0.4455090026928817948, 2.461748858918427540 ) ) ;
#240 = ADVANCED_FACE ( 'NONE', ( #79, #20 ), #62, .F. ) ;
#241 = CARTESIAN_POINT ( 'NONE',  ( 2.253564455545263634, -0.2607125460038317022, 2.488139721847524299 ) ) ;
#242 = FACE_OUTER_BOUND ( 'NONE', #44, .T. ) ;
ENDSEC;
END-ISO-10303-21;
