ISO-10303-21;
HEADER;
FILE_DESCRIPTION (( 'STEP AP214' ),
    '1' );
FILE_NAME ('76.04.02.0001.step',
    '2021-04-02T18:00:01',
    ( '' ),
    ( '' ),
    'SwSTEP 2.0',
    'SolidWorks 2021',
    '' );
FILE_SCHEMA (( 'AUTOMOTIVE_DESIGN' ));
ENDSEC;

DATA;
#1 = EDGE_LOOP ( 'NONE', ( #134 ) ) ;
#2 = AXIS2_PLACEMENT_3D ( 'NONE', #85, #124, #205 ) ;
#3 = DIRECTION ( 'NONE',  ( 0.000000000000000000, 0.000000000000000000, 1.000000000000000000 ) ) ;
#4 = EDGE_LOOP ( 'NONE', ( #6 ) ) ;
#5 = ORIENTED_EDGE ( 'NONE', *, *, #129, .T. ) ;
#6 = ORIENTED_EDGE ( 'NONE', *, *, #178, .T. ) ;
#7 = PRESENTATION_STYLE_ASSIGNMENT (( #229 ) ) ;
#8 = DIRECTION ( 'NONE',  ( -1.000000000000000000, -0.000000000000000000, -0.000000000000000000 ) ) ;
#9 = CARTESIAN_POINT ( 'NONE',  ( 1.738335455097924864, -0.4455746387352811366, -1.951986750894311395 ) ) ;
#10 = CARTESIAN_POINT ( 'NONE',  ( 1.739127198863649193, -0.4462152240479071996, 1.951857673502185309 ) ) ;
#11 = EDGE_CURVE ( 'NONE', #18, #18, #50, .T. ) ;
#12 = APPLICATION_PROTOCOL_DEFINITION ( 'draft international standard', 'automotive_design', 1998, #109 ) ;
#13 = CARTESIAN_POINT ( 'NONE',  ( 12.49999999999999645, 0.000000000000000000, 3.000000000000000888 ) ) ;
#14 = MECHANICAL_DESIGN_GEOMETRIC_PRESENTATION_REPRESENTATION (  '', ( #19 ), #82 ) ;
#15 = CYLINDRICAL_SURFACE ( 'NONE', #160, 1.999999999999999112 ) ;
#16 = APPLICATION_PROTOCOL_DEFINITION ( 'draft international standard', 'automotive_design', 1998, #72 ) ;
#17 = ORIENTED_EDGE ( 'NONE', *, *, #202, .T. ) ;
#18 = VERTEX_POINT ( 'NONE', #34 ) ;
#19 = STYLED_ITEM ( 'NONE', ( #29 ), #83 ) ;
#20 = ORIENTED_EDGE ( 'NONE', *, *, #115, .F. ) ;
#21 = EDGE_LOOP ( 'NONE', ( #209 ) ) ;
#22 = EDGE_LOOP ( 'NONE', ( #130 ) ) ;
#23 = DIRECTION ( 'NONE',  ( 1.000000000000000000, 0.000000000000000000, 0.000000000000000000 ) ) ;
#24 = AXIS2_PLACEMENT_3D ( 'NONE', #141, #84, #120 ) ;
#25 = FACE_OUTER_BOUND ( 'NONE', #75, .T. ) ;
#26 = ADVANCED_FACE ( 'NONE', ( #118, #169 ), #163, .F. ) ;
#27 = SURFACE_STYLE_FILL_AREA ( #143 ) ;
#28 = DIRECTION ( 'NONE',  ( 0.000000000000000000, 0.000000000000000000, 1.000000000000000000 ) ) ;
#29 = PRESENTATION_STYLE_ASSIGNMENT (( #80 ) ) ;
#30 = DIRECTION ( 'NONE',  ( 1.000000000000000000, 0.000000000000000000, 0.000000000000000000 ) ) ;
#31 = CIRCLE ( 'NONE', #54, 1.999999999999998668 ) ;
#32 = PLANE ( 'NONE',  #2 ) ;
#33 = ADVANCED_FACE ( 'NONE', ( #152, #227 ), #203, .T. ) ;
#34 = CARTESIAN_POINT ( 'NONE',  ( 11.99999999999999822, 0.000000000000000000, 3.000000000000000444 ) ) ;
#35 = CARTESIAN_POINT ( 'NONE',  ( 13.00000000000000178, 0.000000000000000000, 0.000000000000000000 ) ) ;
#36 = DIRECTION ( 'NONE',  ( 0.000000000000000000, 0.000000000000000000, -1.000000000000000000 ) ) ;
#37 = PRODUCT_DEFINITION_CONTEXT ( 'detailed design', #109, 'design' ) ;
#38 = EDGE_LOOP ( 'NONE', ( #167 ) ) ;
#39 = ADVANCED_FACE ( 'NONE', ( #182, #90 ), #132, .F. ) ;
#40 = EDGE_LOOP ( 'NONE', ( #5 ) ) ;
#41 = EDGE_LOOP ( 'NONE', ( #57 ) ) ;
#42 = EDGE_LOOP ( 'NONE', ( #225 ) ) ;
#43 = SURFACE_STYLE_FILL_AREA ( #117 ) ;
#44 = CARTESIAN_POINT ( 'NONE',  ( 2.261476161884746094, -0.4455065951656356771, -1.951975199704166331 ) ) ;
#45 = CARTESIAN_POINT ( 'NONE',  ( 2.131329443115315136, 0.4999172126883815737, -1.936513048691114847 ) ) ;
#46 = CARTESIAN_POINT ( 'NONE',  ( 1.869301693944821263, -0.5000825881446044896, 1.936470348940997344 ) ) ;
#47 =( NAMED_UNIT ( * ) PLANE_ANGLE_UNIT ( ) SI_UNIT ( $, .RADIAN. ) );
#48 = CARTESIAN_POINT ( 'NONE',  ( 1.869301693944821263, 0.5000825881446044896, -1.936470348940997344 ) ) ;
#49 = DIRECTION ( 'NONE',  ( -1.000000000000000000, -0.000000000000000000, -0.000000000000000000 ) ) ;
#50 = CIRCLE ( 'NONE', #96, 3.000000000000000444 ) ;
#51 = AXIS2_PLACEMENT_3D ( 'NONE', #73, #148, #144 ) ;
#52 = CARTESIAN_POINT ( 'NONE',  ( 0.7999999999999999334, 0.000000000000000000, 1.999999999999998668 ) ) ;
#53 = CIRCLE ( 'NONE', #190, 2.500000000000001776 ) ;
#54 = AXIS2_PLACEMENT_3D ( 'NONE', #131, #176, #180 ) ;
#55 = EDGE_LOOP ( 'NONE', ( #184 ) ) ;
#56 = FACE_OUTER_BOUND ( 'NONE', #211, .T. ) ;
#57 = ORIENTED_EDGE ( 'NONE', *, *, #178, .F. ) ;
#58 = EDGE_LOOP ( 'NONE', ( #153 ) ) ;
#59 = ORIENTED_EDGE ( 'NONE', *, *, #69, .T. ) ;
#60 = ADVANCED_FACE ( 'NONE', ( #98, #171 ), #147, .T. ) ;
#61 = CARTESIAN_POINT ( 'NONE',  ( 2.131676460514731364, -0.5000692722806541202, -1.936473787080419839 ) ) ;
#62 = CARTESIAN_POINT ( 'NONE',  ( 2.445153297395840752, 0.2620771859351073707, 1.984943035759094254 ) ) ;
#63 = PLANE ( 'NONE',  #51 ) ;
#64 = CARTESIAN_POINT ( 'NONE',  ( 2.445343973449862762, 0.2617992375929784621, -1.984984876921897401 ) ) ;
#65 = CLOSED_SHELL ( 'NONE', ( #140, #33, #60, #26, #223, #237, #234, #39 ) ) ;
#66 = PRESENTATION_LAYER_ASSIGNMENT (  '', '', ( #192 ) ) ;
#67 = DIRECTION ( 'NONE',  ( 0.000000000000000000, 0.000000000000000000, 1.000000000000000000 ) ) ;
#68 = PRODUCT ( '76.04.02.0001', '76.04.02.0001', '', ( #89 ) ) ;
#69 = EDGE_CURVE ( 'NONE', #91, #91, #127, .T. ) ;
#70 = CARTESIAN_POINT ( 'NONE',  ( 1.079967007749232932E-16, 0.000000000000000000, 1.200000000000001288 ) ) ;
#71 = FACE_OUTER_BOUND ( 'NONE', #38, .T. ) ;
#72 = APPLICATION_CONTEXT ( 'automotive_design' ) ;
#73 = CARTESIAN_POINT ( 'NONE',  ( 13.00000000000000000, 0.000000000000000000, 0.000000000000000000 ) ) ;
#74 =( NAMED_UNIT ( * ) PLANE_ANGLE_UNIT ( ) SI_UNIT ( $, .RADIAN. ) );
#75 = EDGE_LOOP ( 'NONE', ( #20 ) ) ;
#76 = SURFACE_SIDE_STYLE ('',( #43 ) ) ;
#77 = EDGE_LOOP ( 'NONE', ( #187 ) ) ;
#78 = ORIENTED_EDGE ( 'NONE', *, *, #115, .T. ) ;
#79 =( NAMED_UNIT ( * ) SI_UNIT ( $, .STERADIAN. ) SOLID_ANGLE_UNIT ( ) );
#80 = SURFACE_STYLE_USAGE ( .BOTH. , #158 ) ;
#81 = PRODUCT_DEFINITION ( 'UNKNOWN', '', #239, #37 ) ;
#82 =( GEOMETRIC_REPRESENTATION_CONTEXT ( 3 ) GLOBAL_UNCERTAINTY_ASSIGNED_CONTEXT ( ( #198 ) ) GLOBAL_UNIT_ASSIGNED_CONTEXT ( ( #156, #47, #79 ) ) REPRESENTATION_CONTEXT ( 'NONE', 'WORKASPACE' ) );
#83 = MANIFOLD_SOLID_BREP ( 'Cut-Extrude1', #65 ) ;
#84 = DIRECTION ( 'NONE',  ( -1.000000000000000000, -0.000000000000000000, -0.000000000000000000 ) ) ;
#85 = CARTESIAN_POINT ( 'NONE',  ( 5.399835038746164662E-17, 1.200000000000001288, 0.000000000000000000 ) ) ;
#86 =( GEOMETRIC_REPRESENTATION_CONTEXT ( 3 ) GLOBAL_UNCERTAINTY_ASSIGNED_CONTEXT ( ( #103 ) ) GLOBAL_UNIT_ASSIGNED_CONTEXT ( ( #146, #74, #133 ) ) REPRESENTATION_CONTEXT ( 'NONE', 'WORKASPACE' ) );
#87 = CARTESIAN_POINT ( 'NONE',  ( 0.7999999999999999334, 0.000000000000000000, 0.000000000000000000 ) ) ;
#88 = FACE_OUTER_BOUND ( 'NONE', #168, .T. ) ;
#89 = PRODUCT_CONTEXT ( 'NONE', #72, 'mechanical' ) ;
#90 = FACE_OUTER_BOUND ( 'NONE', #58, .T. ) ;
#91 = VERTEX_POINT ( 'NONE', #224 ) ;
#92 = PRESENTATION_LAYER_ASSIGNMENT (  '', '', ( #19 ) ) ;
#93 = DIRECTION ( 'NONE',  ( 0.000000000000000000, 0.000000000000000000, -1.000000000000000000 ) ) ;
#94 = CARTESIAN_POINT ( 'NONE',  ( 11.99999999999999822, 0.000000000000000000, 0.000000000000000000 ) ) ;
#95 =( LENGTH_UNIT ( ) NAMED_UNIT ( * ) SI_UNIT ( .MILLI., .METRE. ) );
#96 = AXIS2_PLACEMENT_3D ( 'NONE', #94, #113, #208 ) ;
#97 = AXIS2_PLACEMENT_3D ( 'NONE', #183, #204, #241 ) ;
#98 = FACE_OUTER_BOUND ( 'NONE', #42, .T. ) ;
#99 = FILL_AREA_STYLE_COLOUR ( '', #185 ) ;
#100 = CARTESIAN_POINT ( 'NONE',  ( 2.500000000000000444, -0.1326938576183075424, -1.999999999999999556 ) ) ;
#101 = CARTESIAN_POINT ( 'NONE',  ( 1.554049581596341101, 0.2610235948501354319, 1.985108490053509200 ) ) ;
#102 =( GEOMETRIC_REPRESENTATION_CONTEXT ( 3 ) GLOBAL_UNCERTAINTY_ASSIGNED_CONTEXT ( ( #226 ) ) GLOBAL_UNIT_ASSIGNED_CONTEXT ( ( #95, #114, #191 ) ) REPRESENTATION_CONTEXT ( 'NONE', 'WORKASPACE' ) );
#103 = UNCERTAINTY_MEASURE_WITH_UNIT (LENGTH_MEASURE( 1.000000000000000082E-05 ), #146, 'distance_accuracy_value', 'NONE');
#104 = CARTESIAN_POINT ( 'NONE',  ( 1.867797984509063758, -0.4999305896153235507, -1.936509594785360999 ) ) ;
#105 = VERTEX_POINT ( 'NONE', #219 ) ;
#106 = AXIS2_PLACEMENT_3D ( 'NONE', #220, #8, #172 ) ;
#107 = CIRCLE ( 'NONE', #125, 3.000000000000000888 ) ;
#108 = CARTESIAN_POINT ( 'NONE',  ( 2.500000000000000000, 0.000000000000000000, -1.999999999999999112 ) ) ;
#109 = APPLICATION_CONTEXT ( 'automotive_design' ) ;
#110 = VERTEX_POINT ( 'NONE', #242 ) ;
#111 = DIRECTION ( 'NONE',  ( -1.000000000000000000, -0.000000000000000000, -0.000000000000000000 ) ) ;
#112 = AXIS2_PLACEMENT_3D ( 'NONE', #116, #228, #23 ) ;
#113 = DIRECTION ( 'NONE',  ( -1.000000000000000000, -0.000000000000000000, -0.000000000000000000 ) ) ;
#114 =( NAMED_UNIT ( * ) PLANE_ANGLE_UNIT ( ) SI_UNIT ( $, .RADIAN. ) );
#115 = EDGE_CURVE ( 'NONE', #110, #110, #53, .T. ) ;
#116 = CARTESIAN_POINT ( 'NONE',  ( 2.000000000000000000, 0.000000000000000000, -3.000000000000000888 ) ) ;
#117 = FILL_AREA_STYLE ('',( #238 ) ) ;
#118 = FACE_BOUND ( 'NONE', #21, .T. ) ;
#119 = CARTESIAN_POINT ( 'NONE',  ( 1.553837594113024467, 0.2609631240577789946, -1.985133409034135488 ) ) ;
#120 = DIRECTION ( 'NONE',  ( 0.000000000000000000, 0.000000000000000000, 1.000000000000000000 ) ) ;
#121 = CARTESIAN_POINT ( 'NONE',  ( 1.499944692266457658, 0.1306117915533210050, 2.000013826932223182 ) ) ;
#122 = AXIS2_PLACEMENT_3D ( 'NONE', #150, #136, #93 ) ;
#123 = CARTESIAN_POINT ( 'NONE',  ( 1.739127198863649193, 0.4462152240479071996, -1.951857673502185309 ) ) ;
#124 = DIRECTION ( 'NONE',  ( 1.000000000000000000, 0.000000000000000000, 0.000000000000000000 ) ) ;
#125 = AXIS2_PLACEMENT_3D ( 'NONE', #207, #111, #67 ) ;
#126 = EDGE_CURVE ( 'NONE', #105, #105, #200, .T. ) ;
#127 = CIRCLE ( 'NONE', #24, 2.000000000000000000 ) ;
#128 = CARTESIAN_POINT ( 'NONE',  ( 0.000000000000000000, 0.000000000000000000, 0.000000000000000000 ) ) ;
#129 = EDGE_CURVE ( 'NONE', #181, #181, #164, .T. ) ;
#130 = ORIENTED_EDGE ( 'NONE', *, *, #218, .F. ) ;
#131 = CARTESIAN_POINT ( 'NONE',  ( 0.7999999999999999334, 0.000000000000000000, 0.000000000000000000 ) ) ;
#132 = CYLINDRICAL_SURFACE ( 'NONE', #112, 0.5000000000000000000 ) ;
#133 =( NAMED_UNIT ( * ) SI_UNIT ( $, .STERADIAN. ) SOLID_ANGLE_UNIT ( ) );
#134 = ORIENTED_EDGE ( 'NONE', *, *, #129, .F. ) ;
#135 = DIRECTION ( 'NONE',  ( -1.000000000000000000, -0.000000000000000000, -0.000000000000000000 ) ) ;
#136 = DIRECTION ( 'NONE',  ( 1.000000000000000000, 0.000000000000000000, 0.000000000000000000 ) ) ;
#137 = CARTESIAN_POINT ( 'NONE',  ( 2.500000000000000000, 0.1326938576183071539, -1.999999999999998224 ) ) ;
#138 = AXIS2_PLACEMENT_3D ( 'NONE', #35, #135, #188 ) ;
#139 = CARTESIAN_POINT ( 'NONE',  ( 2.500000000000000444, 0.1326938576183075424, 1.999999999999999556 ) ) ;
#140 = ADVANCED_FACE ( 'NONE', ( #25 ), #63, .F. ) ;
#141 = CARTESIAN_POINT ( 'NONE',  ( 12.00000000000000000, 0.000000000000000000, 0.000000000000000000 ) ) ;
#142 = CARTESIAN_POINT ( 'NONE',  ( 13.00000000000000178, 0.000000000000000000, 0.000000000000000000 ) ) ;
#143 = FILL_AREA_STYLE ('',( #99 ) ) ;
#144 = DIRECTION ( 'NONE',  ( -0.000000000000000000, 0.000000000000000000, 1.000000000000000000 ) ) ;
#145 = ADVANCED_BREP_SHAPE_REPRESENTATION ( '76.04.02.0001', ( #83, #217 ), #86 ) ;
#146 =( LENGTH_UNIT ( ) NAMED_UNIT ( * ) SI_UNIT ( .MILLI., .METRE. ) );
#147 = CYLINDRICAL_SURFACE ( 'NONE', #106, 3.000000000000000888 ) ;
#148 = DIRECTION ( 'NONE',  ( -1.000000000000000000, 0.000000000000000000, -0.000000000000000000 ) ) ;
#149 = EDGE_LOOP ( 'NONE', ( #17 ) ) ;
#150 = CARTESIAN_POINT ( 'NONE',  ( 12.00000000000000000, 3.000000000000000444, 0.000000000000000000 ) ) ;
#151 = DIRECTION ( 'NONE',  ( 1.000000000000000000, 0.000000000000000000, 0.000000000000000000 ) ) ;
#152 = FACE_OUTER_BOUND ( 'NONE', #41, .T. ) ;
#153 = ORIENTED_EDGE ( 'NONE', *, *, #126, .F. ) ;
#154 = CARTESIAN_POINT ( 'NONE',  ( 2.261622501280932784, -0.4454478222147742472, 1.951993862720122763 ) ) ;
#155 = CARTESIAN_POINT ( 'NONE',  ( 0.000000000000000000, 0.000000000000000000, 0.000000000000000000 ) ) ;
#156 =( LENGTH_UNIT ( ) NAMED_UNIT ( * ) SI_UNIT ( .MILLI., .METRE. ) );
#157 = CARTESIAN_POINT ( 'NONE',  ( 1.553837594113024467, -0.2609631240577789946, 1.985133409034135488 ) ) ;
#158 = SURFACE_SIDE_STYLE ('',( #27 ) ) ;
#159 = CARTESIAN_POINT ( 'NONE',  ( 2.131676460514731364, 0.5000692722806541202, 1.936473787080419839 ) ) ;
#160 = AXIS2_PLACEMENT_3D ( 'NONE', #128, #49, #3 ) ;
#161 = CONICAL_SURFACE ( 'NONE', #165, 1.999999999999998668, 0.7853981633974468357 ) ;
#162 = VERTEX_POINT ( 'NONE', #52 ) ;
#163 = PLANE ( 'NONE',  #122 ) ;
#164 = B_SPLINE_CURVE_WITH_KNOTS ( 'NONE', 3,
 ( #213, #137, #64, #173, #45, #48, #123, #119, #195, #233, #214, #9, #104, #61, #44, #193, #100, #235 ),
 .UNSPECIFIED., .T., .F.,
 ( 4, 2, 2, 2, 2, 2, 2, 2, 4 ),
 ( 0.000000000000000000, 0.0003923156643295052119, 0.0007846313286590104238, 0.001176946992988516395, 0.001569262657318022365, 0.001961578321647527903, 0.002353893985977034090, 0.002746209650306539844, 0.003138525314636046032 ),
 .UNSPECIFIED. ) ;
#165 = AXIS2_PLACEMENT_3D ( 'NONE', #87, #30, #36 ) ;
#166 = VERTEX_POINT ( 'NONE', #70 ) ;
#167 = ORIENTED_EDGE ( 'NONE', *, *, #202, .F. ) ;
#168 = EDGE_LOOP ( 'NONE', ( #59 ) ) ;
#169 = FACE_OUTER_BOUND ( 'NONE', #77, .T. ) ;
#170 = SHAPE_DEFINITION_REPRESENTATION ( #194, #145 ) ;
#171 = FACE_OUTER_BOUND ( 'NONE', #4, .T. ) ;
#172 = DIRECTION ( 'NONE',  ( 0.000000000000000000, 0.000000000000000000, 1.000000000000000000 ) ) ;
#173 = CARTESIAN_POINT ( 'NONE',  ( 2.261622501280932784, 0.4454478222147742472, -1.951993862720122763 ) ) ;
#174 = CARTESIAN_POINT ( 'NONE',  ( 1.738335455097924864, 0.4455746387352811366, 1.951986750894311395 ) ) ;
#175 = DIRECTION ( 'NONE',  ( -1.000000000000000000, -0.000000000000000000, -0.000000000000000000 ) ) ;
#176 = DIRECTION ( 'NONE',  ( -1.000000000000000000, -0.000000000000000000, -0.000000000000000000 ) ) ;
#177 = VERTEX_POINT ( 'NONE', #13 ) ;
#178 = EDGE_CURVE ( 'NONE', #177, #177, #107, .T. ) ;
#179 = CIRCLE ( 'NONE', #97, 1.200000000000001288 ) ;
#180 = DIRECTION ( 'NONE',  ( 0.000000000000000000, 0.000000000000000000, 1.000000000000000000 ) ) ;
#181 = VERTEX_POINT ( 'NONE', #108 ) ;
#182 = FACE_OUTER_BOUND ( 'NONE', #1, .T. ) ;
#183 = CARTESIAN_POINT ( 'NONE',  ( 1.079967007749232932E-16, 0.000000000000000000, 0.000000000000000000 ) ) ;
#184 = ORIENTED_EDGE ( 'NONE', *, *, #126, .T. ) ;
#185 = COLOUR_RGB ( '',0.7764705882352941346, 0.7568627450980391913, 0.7372549019607843590 ) ;
#186 = MECHANICAL_DESIGN_GEOMETRIC_PRESENTATION_REPRESENTATION (  '', ( #192 ), #102 ) ;
#187 = ORIENTED_EDGE ( 'NONE', *, *, #11, .T. ) ;
#188 = DIRECTION ( 'NONE',  ( 0.000000000000000000, 0.000000000000000000, 1.000000000000000000 ) ) ;
#189 = PRODUCT_RELATED_PRODUCT_CATEGORY ( 'part', '', ( #68 ) ) ;
#190 = AXIS2_PLACEMENT_3D ( 'NONE', #142, #175, #28 ) ;
#191 =( NAMED_UNIT ( * ) SI_UNIT ( $, .STERADIAN. ) SOLID_ANGLE_UNIT ( ) );
#192 = STYLED_ITEM ( 'NONE', ( #7 ), #145 ) ;
#193 = CARTESIAN_POINT ( 'NONE',  ( 2.445153297395840752, -0.2620771859351073707, -1.984943035759094254 ) ) ;
#194 = PRODUCT_DEFINITION_SHAPE ( 'NONE', 'NONE',  #81 ) ;
#195 = CARTESIAN_POINT ( 'NONE',  ( 1.500055397243994726, 0.1310349001617353293, -1.999986150690163056 ) ) ;
#196 = CARTESIAN_POINT ( 'NONE',  ( 2.445343973449862762, -0.2617992375929784621, 1.984984876921897401 ) ) ;
#197 = CARTESIAN_POINT ( 'NONE',  ( 2.500000000000000444, 0.000000000000000000, 1.999999999999999112 ) ) ;
#198 = UNCERTAINTY_MEASURE_WITH_UNIT (LENGTH_MEASURE( 1.000000000000000082E-05 ), #156, 'distance_accuracy_value', 'NONE');
#199 = CARTESIAN_POINT ( 'NONE',  ( 2.500000000000000000, -0.1326938576183071539, 1.999999999999998224 ) ) ;
#200 = B_SPLINE_CURVE_WITH_KNOTS ( 'NONE', 3,
 ( #215, #199, #196, #154, #232, #46, #10, #157, #212, #121, #101, #174, #230, #159, #236, #62, #139, #197 ),
 .UNSPECIFIED., .T., .F.,
 ( 4, 2, 2, 2, 2, 2, 2, 2, 4 ),
 ( 0.000000000000000000, 0.0003923156643295052119, 0.0007846313286590104238, 0.001176946992988516395, 0.001569262657318022365, 0.001961578321647527903, 0.002353893985977034090, 0.002746209650306539844, 0.003138525314636046032 ),
 .UNSPECIFIED. ) ;
#201 = FACE_BOUND ( 'NONE', #22, .T. ) ;
#202 = EDGE_CURVE ( 'NONE', #162, #162, #31, .T. ) ;
#203 = CONICAL_SURFACE ( 'NONE', #138, 2.500000000000001776, 0.7853981633974435050 ) ;
#204 = DIRECTION ( 'NONE',  ( -1.000000000000000000, -0.000000000000000000, -0.000000000000000000 ) ) ;
#205 = DIRECTION ( 'NONE',  ( 0.000000000000000000, 0.000000000000000000, -1.000000000000000000 ) ) ;
#206 = EDGE_LOOP ( 'NONE', ( #78 ) ) ;
#207 = CARTESIAN_POINT ( 'NONE',  ( 12.49999999999999645, 0.000000000000000000, 0.000000000000000000 ) ) ;
#208 = DIRECTION ( 'NONE',  ( 0.000000000000000000, 0.000000000000000000, 1.000000000000000000 ) ) ;
#209 = ORIENTED_EDGE ( 'NONE', *, *, #69, .F. ) ;
#210 = ORIENTED_EDGE ( 'NONE', *, *, #218, .T. ) ;
#211 = EDGE_LOOP ( 'NONE', ( #210 ) ) ;
#212 = CARTESIAN_POINT ( 'NONE',  ( 1.500055397243994726, -0.1310349001617353293, 1.999986150690163056 ) ) ;
#213 = CARTESIAN_POINT ( 'NONE',  ( 2.500000000000000444, 0.000000000000000000, -1.999999999999999112 ) ) ;
#214 = CARTESIAN_POINT ( 'NONE',  ( 1.554049581596341101, -0.2610235948501354319, -1.985108490053509200 ) ) ;
#215 = CARTESIAN_POINT ( 'NONE',  ( 2.500000000000000444, 0.000000000000000000, 1.999999999999999112 ) ) ;
#216 = FACE_BOUND ( 'NONE', #55, .T. ) ;
#217 = AXIS2_PLACEMENT_3D ( 'NONE', #155, #231, #151 ) ;
#218 = EDGE_CURVE ( 'NONE', #166, #166, #179, .T. ) ;
#219 = CARTESIAN_POINT ( 'NONE',  ( 2.500000000000000000, 0.000000000000000000, 1.999999999999999112 ) ) ;
#220 = CARTESIAN_POINT ( 'NONE',  ( 0.000000000000000000, 0.000000000000000000, 0.000000000000000000 ) ) ;
#221 = COLOUR_RGB ( '',0.7764705882352941346, 0.7568627450980391913, 0.7372549019607843590 ) ;
#222 = FACE_OUTER_BOUND ( 'NONE', #149, .T. ) ;
#223 = ADVANCED_FACE ( 'NONE', ( #216, #240, #71, #88 ), #15, .T. ) ;
#224 = CARTESIAN_POINT ( 'NONE',  ( 12.00000000000000000, 0.000000000000000000, 2.000000000000000000 ) ) ;
#225 = ORIENTED_EDGE ( 'NONE', *, *, #11, .F. ) ;
#226 = UNCERTAINTY_MEASURE_WITH_UNIT (LENGTH_MEASURE( 1.000000000000000082E-05 ), #95, 'distance_accuracy_value', 'NONE');
#227 = FACE_BOUND ( 'NONE', #206, .T. ) ;
#228 = DIRECTION ( 'NONE',  ( -0.000000000000000000, -0.000000000000000000, 1.000000000000000000 ) ) ;
#229 = SURFACE_STYLE_USAGE ( .BOTH. , #76 ) ;
#230 = CARTESIAN_POINT ( 'NONE',  ( 1.867797984509063758, 0.4999305896153235507, 1.936509594785360999 ) ) ;
#231 = DIRECTION ( 'NONE',  ( 0.000000000000000000, 0.000000000000000000, 1.000000000000000000 ) ) ;
#232 = CARTESIAN_POINT ( 'NONE',  ( 2.131329443115315136, -0.4999172126883815737, 1.936513048691114847 ) ) ;
#233 = CARTESIAN_POINT ( 'NONE',  ( 1.499944692266457658, -0.1306117915533210050, -2.000013826932223182 ) ) ;
#234 = ADVANCED_FACE ( 'NONE', ( #56 ), #32, .F. ) ;
#235 = CARTESIAN_POINT ( 'NONE',  ( 2.500000000000000444, 0.000000000000000000, -1.999999999999999112 ) ) ;
#236 = CARTESIAN_POINT ( 'NONE',  ( 2.261476161884746094, 0.4455065951656356771, 1.951975199704166331 ) ) ;
#237 = ADVANCED_FACE ( 'NONE', ( #201, #222 ), #161, .T. ) ;
#238 = FILL_AREA_STYLE_COLOUR ( '', #221 ) ;
#239 = PRODUCT_DEFINITION_FORMATION_WITH_SPECIFIED_SOURCE ( 'ANY', '', #68, .NOT_KNOWN. ) ;
#240 = FACE_BOUND ( 'NONE', #40, .T. ) ;
#241 = DIRECTION ( 'NONE',  ( 0.000000000000000000, 0.000000000000000000, 1.000000000000000000 ) ) ;
#242 = CARTESIAN_POINT ( 'NONE',  ( 13.00000000000000178, 0.000000000000000000, 2.500000000000001776 ) ) ;
ENDSEC;
END-ISO-10303-21;
