ISO-10303-21;
HEADER;
FILE_DESCRIPTION (( 'STEP AP214' ),
    '1' );
FILE_NAME ('76.04.01.0007.step',
    '2021-04-02T17:59:46',
    ( '' ),
    ( '' ),
    'SwSTEP 2.0',
    'SolidWorks 2021',
    '' );
FILE_SCHEMA (( 'AUTOMOTIVE_DESIGN' ));
ENDSEC;

DATA;
#1 = ORIENTED_EDGE ( 'NONE', *, *, #50, .F. ) ;
#2 =( LENGTH_UNIT ( ) NAMED_UNIT ( * ) SI_UNIT ( .MILLI., .METRE. ) );
#3 = CARTESIAN_POINT ( 'NONE',  ( 5.765501804863589541, -1.004245093456140214, -6.928457968091154662 ) ) ;
#4 = CARTESIAN_POINT ( 'NONE',  ( 40.00000000000000000, 0.000000000000000000, 9.500000000000005329 ) ) ;
#5 = PLANE ( 'NONE',  #64 ) ;
#6 = ADVANCED_FACE ( 'NONE', ( #219 ), #85, .F. ) ;
#7 = VERTEX_POINT ( 'NONE', #223 ) ;
#8 = AXIS2_PLACEMENT_3D ( 'NONE', #32, #244, #53 ) ;
#9 = SURFACE_STYLE_USAGE ( .BOTH. , #97 ) ;
#10 = SURFACE_STYLE_FILL_AREA ( #225 ) ;
#11 = CARTESIAN_POINT ( 'NONE',  ( 43.00000000000000000, 0.000000000000000000, 8.000000000000007105 ) ) ;
#12 =( LENGTH_UNIT ( ) NAMED_UNIT ( * ) SI_UNIT ( .MILLI., .METRE. ) );
#13 = CIRCLE ( 'NONE', #153, 9.500000000000003553 ) ;
#14 = SHAPE_DEFINITION_REPRESENTATION ( #248, #108 ) ;
#15 = CARTESIAN_POINT ( 'NONE',  ( 8.508077821012140163, 1.746968330274872638, 6.779297230211255076 ) ) ;
#16 = CARTESIAN_POINT ( 'NONE',  ( 9.500000000000001776, 1.626303258728256651E-16, -7.000000000000000000 ) ) ;
#17 = CARTESIAN_POINT ( 'NONE',  ( 6.979725891775403923, -1.935586691976381779, 6.727125645283256183 ) ) ;
#18 = CARTESIAN_POINT ( 'NONE',  ( 8.729905465984259649, 1.598313451048314349, 6.817655322462390366 ) ) ;
#19 = CARTESIAN_POINT ( 'NONE',  ( 5.603147246947255411, -0.6473023638615457154, 6.971062618311932191 ) ) ;
#20 = CARTESIAN_POINT ( 'NONE',  ( 5.603147246947255411, 0.6473023638615457154, -6.971062618311932191 ) ) ;
#21 = DIRECTION ( 'NONE',  ( -1.000000000000000000, -0.000000000000000000, -0.000000000000000000 ) ) ;
#22 = CARTESIAN_POINT ( 'NONE',  ( 7.367406292895790187, -1.999951807442586604, -6.708218300742919027 ) ) ;
#23 = EDGE_LOOP ( 'NONE', ( #213 ) ) ;
#24 = CARTESIAN_POINT ( 'NONE',  ( 43.00000000000000000, 0.000000000000000000, 0.000000000000000000 ) ) ;
#25 = AXIS2_PLACEMENT_3D ( 'NONE', #171, #146, #73 ) ;
#26 = CARTESIAN_POINT ( 'NONE',  ( 7.234747573542422927, -1.986633563944614433, -6.712227924078428387 ) ) ;
#27 = ORIENTED_EDGE ( 'NONE', *, *, #256, .F. ) ;
#28 = ADVANCED_FACE ( 'NONE', ( #201, #71, #270, #272 ), #175, .T. ) ;
#29 = FACE_BOUND ( 'NONE', #320, .T. ) ;
#30 = CARTESIAN_POINT ( 'NONE',  ( -4.009977045591169573E-16, 0.000000000000000000, 5.500000000000005329 ) ) ;
#31 = FACE_OUTER_BOUND ( 'NONE', #194, .T. ) ;
#32 = CARTESIAN_POINT ( 'NONE',  ( -2.004988522795584786E-16, 5.500000000000005329, 0.000000000000000000 ) ) ;
#33 = DIRECTION ( 'NONE',  ( 0.000000000000000000, 0.000000000000000000, 1.000000000000000000 ) ) ;
#34 = FACE_OUTER_BOUND ( 'NONE', #242, .T. ) ;
#35 = APPLICATION_PROTOCOL_DEFINITION ( 'draft international standard', 'automotive_design', 1998, #282 ) ;
#36 = CARTESIAN_POINT ( 'NONE',  ( 9.486891335408076387, 0.2633913472731422289, -6.996222736472787140 ) ) ;
#37 = CARTESIAN_POINT ( 'NONE',  ( 5.513209139039284779, -0.2645355679088474132, 6.996193262561372528 ) ) ;
#38 = CARTESIAN_POINT ( 'NONE',  ( 6.978533742595823597, 1.935237636447212806, 6.727226167793653566 ) ) ;
#39 = PRESENTATION_LAYER_ASSIGNMENT (  '', '', ( #84 ) ) ;
#40 = CARTESIAN_POINT ( 'NONE',  ( 9.296213096854549107, -0.8892579790429944175, 6.944352187521592334 ) ) ;
#41 = CARTESIAN_POINT ( 'NONE',  ( 7.367406292895790187, 1.999951807442586604, 6.708218300742919027 ) ) ;
#42 = CARTESIAN_POINT ( 'NONE',  ( 9.089011744225285128, -1.221524040899470531, -6.893473387299962063 ) ) ;
#43 = CARTESIAN_POINT ( 'NONE',  ( 6.978533742595823597, -1.935237636447212806, -6.727226167793653566 ) ) ;
#44 = CARTESIAN_POINT ( 'NONE',  ( 8.508077821012140163, -1.746968330274872638, -6.779297230211255076 ) ) ;
#45 = CARTESIAN_POINT ( 'NONE',  ( 9.435376982006561164, -0.5211030426447135211, -6.981767182948574124 ) ) ;
#46 = EDGE_CURVE ( 'NONE', #290, #290, #199, .T. ) ;
#47 = CARTESIAN_POINT ( 'NONE',  ( 9.500000000000001776, 0.000000000000000000, 7.000000000000000888 ) ) ;
#48 = CARTESIAN_POINT ( 'NONE',  ( 40.00000000000000000, 0.000000000000000000, 0.000000000000000000 ) ) ;
#49 = DIRECTION ( 'NONE',  ( 0.000000000000000000, 0.000000000000000000, 1.000000000000000000 ) ) ;
#50 = EDGE_CURVE ( 'NONE', #7, #7, #252, .T. ) ;
#51 = CIRCLE ( 'NONE', #232, 9.500000000000005329 ) ;
#52 = CARTESIAN_POINT ( 'NONE',  ( 0.000000000000000000, 0.000000000000000000, 0.000000000000000000 ) ) ;
#53 = DIRECTION ( 'NONE',  ( 0.000000000000000000, 0.000000000000000000, -1.000000000000000000 ) ) ;
#54 = CARTESIAN_POINT ( 'NONE',  ( 1.499999999999999112, 0.000000000000000000, 0.000000000000000000 ) ) ;
#55 = CARTESIAN_POINT ( 'NONE',  ( 9.500000000000001776, 0.1328729097219937816, 7.000000000000000888 ) ) ;
#56 = CARTESIAN_POINT ( 'NONE',  ( 8.146519398062180173, 1.897114250112341249, 6.738223047855723458 ) ) ;
#57 = APPLICATION_PROTOCOL_DEFINITION ( 'draft international standard', 'automotive_design', 1998, #276 ) ;
#58 = CARTESIAN_POINT ( 'NONE',  ( 5.552701440454314685, 0.5255173936034566173, 6.984458878246900149 ) ) ;
#59 = COLOUR_RGB ( '',0.8274509803921568096, 0.8392156862745098200, 0.8274509803921568096 ) ;
#60 = CARTESIAN_POINT ( 'NONE',  ( 7.236800597737057750, -1.986934086600108174, 6.712138871111824834 ) ) ;
#61 = EDGE_LOOP ( 'NONE', ( #265 ) ) ;
#62 = CARTESIAN_POINT ( 'NONE',  ( 8.508453078299064387, 1.746645116476648552, -6.779378394943107011 ) ) ;
#63 = EDGE_LOOP ( 'NONE', ( #27 ) ) ;
#64 = AXIS2_PLACEMENT_3D ( 'NONE', #99, #271, #249 ) ;
#65 = CARTESIAN_POINT ( 'NONE',  ( 6.494841309208952751, -1.733925575223948634, -6.782258415721988953 ) ) ;
#66 = EDGE_LOOP ( 'NONE', ( #167 ) ) ;
#67 = CARTESIAN_POINT ( 'NONE',  ( 9.295896173694821130, -0.8898348396013819883, -6.944270883158618624 ) ) ;
#68 = CARTESIAN_POINT ( 'NONE',  ( 5.911130081222310650, 1.221641574287992693, -6.893443716731381343 ) ) ;
#69 = ORIENTED_EDGE ( 'NONE', *, *, #46, .T. ) ;
#70 = AXIS2_PLACEMENT_3D ( 'NONE', #198, #148, #273 ) ;
#71 = FACE_BOUND ( 'NONE', #23, .T. ) ;
#72 = UNCERTAINTY_MEASURE_WITH_UNIT (LENGTH_MEASURE( 1.000000000000000082E-05 ), #12, 'distance_accuracy_value', 'NONE');
#73 = DIRECTION ( 'NONE',  ( 0.000000000000000000, 0.000000000000000000, 1.000000000000000000 ) ) ;
#74 = FACE_OUTER_BOUND ( 'NONE', #122, .T. ) ;
#75 =( NAMED_UNIT ( * ) SI_UNIT ( $, .STERADIAN. ) SOLID_ANGLE_UNIT ( ) );
#76 = DIRECTION ( 'NONE',  ( -0.000000000000000000, -0.000000000000000000, 1.000000000000000000 ) ) ;
#77 = CARTESIAN_POINT ( 'NONE',  ( 9.500000000000000000, -0.1328729097219921995, 6.999999999999999112 ) ) ;
#78 = MECHANICAL_DESIGN_GEOMETRIC_PRESENTATION_REPRESENTATION (  '', ( #280 ), #269 ) ;
#79 = CARTESIAN_POINT ( 'NONE',  ( 6.177237321607107923, 1.505762237629875377, 6.836780074312184041 ) ) ;
#80 = CARTESIAN_POINT ( 'NONE',  ( 7.761421847467224744, 1.987180762732975614, 6.712065564793263661 ) ) ;
#81 = DIRECTION ( 'NONE',  ( -1.000000000000000000, -0.000000000000000000, -0.000000000000000000 ) ) ;
#82 = B_SPLINE_CURVE_WITH_KNOTS ( 'NONE', 3,
 ( #123, #77, #184, #285, #154, #40, #183, #136, #156, #134, #260, #235, #228, #231, #287, #283, #60, #17, #208, #255, #257, #159, #312, #307, #106, #19, #111, #37, #206, #180, #58, #132, #178, #107, #207, #79, #311, #158, #110, #261, #38, #210, #41, #313, #80, #182, #56, #15, #18, #281, #83, #105, #135, #205, #279, #233, #55, #155 ),
 .UNSPECIFIED., .T., .F.,
 ( 4, 2, 2, 2, 2, 2, 2, 2, 2, 2, 2, 2, 2, 2, 2, 2, 2, 2, 2, 2, 2, 2, 2, 2, 2, 2, 2, 2, 4 ),
 ( 0.000000000000000000, 0.0003928108448618230814, 0.0007856216897236461627, 0.001178432534585469298, 0.001571243379447292325, 0.002356865069170938597, 0.002749675914032759239, 0.003142486758894582483, 0.003535297603756403558, 0.003928108448618224634, 0.004713730138341865918, 0.005106540983203685692, 0.005499351828065506334, 0.005892162672927326976, 0.006284973517789146751, 0.007070595207512787167, 0.007463406052374607809, 0.007856216897236426716, 0.008249027742098248225, 0.008641838586960069735, 0.009034649431821887774, 0.009427460276683709284, 0.009820271121545530793, 0.01021308196640735230, 0.01099870365613100053, 0.01139151450099282897, 0.01178432534585465742, 0.01217713619071648240, 0.01256994703557831085 ),
 .UNSPECIFIED. ) ;
#83 = CARTESIAN_POINT ( 'NONE',  ( 9.089011744225285128, 1.221524040899470531, 6.893473387299962063 ) ) ;
#84 = STYLED_ITEM ( 'NONE', ( #174 ), #193 ) ;
#85 = PLANE ( 'NONE',  #152 ) ;
#86 = CARTESIAN_POINT ( 'NONE',  ( 5.766293639281745875, 1.005573473014547581, -6.928260705410964171 ) ) ;
#87 = EDGE_LOOP ( 'NONE', ( #215 ) ) ;
#88 = CARTESIAN_POINT ( 'NONE',  ( 5.993421668581459194, 1.321852327708042063, -6.874707648399437154 ) ) ;
#89 = ORIENTED_EDGE ( 'NONE', *, *, #245, .T. ) ;
#90 = AXIS2_PLACEMENT_3D ( 'NONE', #126, #299, #220 ) ;
#91 = CARTESIAN_POINT ( 'NONE',  ( 7.236800597737057750, 1.986934086600108174, -6.712138871111824834 ) ) ;
#92 = ORIENTED_EDGE ( 'NONE', *, *, #191, .F. ) ;
#93 = ADVANCED_FACE ( 'NONE', ( #128 ), #247, .F. ) ;
#94 = CARTESIAN_POINT ( 'NONE',  ( 9.234459410772664967, -1.004355444134897635, -6.928446179753782630 ) ) ;
#95 = EDGE_LOOP ( 'NONE', ( #89 ) ) ;
#96 = CYLINDRICAL_SURFACE ( 'NONE', #25, 9.500000000000005329 ) ;
#97 = SURFACE_SIDE_STYLE ('',( #10 ) ) ;
#98 = VERTEX_POINT ( 'NONE', #202 ) ;
#99 = CARTESIAN_POINT ( 'NONE',  ( 40.00000000000000000, 9.500000000000005329, 0.000000000000000000 ) ) ;
#100 = UNCERTAINTY_MEASURE_WITH_UNIT (LENGTH_MEASURE( 1.000000000000000082E-05 ), #2, 'distance_accuracy_value', 'NONE');
#101 = PRESENTATION_STYLE_ASSIGNMENT (( #277 ) ) ;
#102 = FACE_OUTER_BOUND ( 'NONE', #87, .T. ) ;
#103 = PRODUCT_DEFINITION ( 'UNKNOWN', '', #185, #250 ) ;
#104 = DIRECTION ( 'NONE',  ( 0.000000000000000000, 0.000000000000000000, 1.000000000000000000 ) ) ;
#105 = CARTESIAN_POINT ( 'NONE',  ( 9.234459410772664967, 1.004355444134897635, 6.928446179753782630 ) ) ;
#106 = CARTESIAN_POINT ( 'NONE',  ( 5.703414891121686203, -0.8884439563535901918, 6.944449705707822496 ) ) ;
#107 = CARTESIAN_POINT ( 'NONE',  ( 5.910529672231294995, 1.220891589701988744, 6.893581199168648865 ) ) ;
#108 = ADVANCED_BREP_SHAPE_REPRESENTATION ( '76.04.01.0007', ( #193, #222 ), #157 ) ;
#109 =( NAMED_UNIT ( * ) SI_UNIT ( $, .STERADIAN. ) SOLID_ANGLE_UNIT ( ) );
#110 = CARTESIAN_POINT ( 'NONE',  ( 6.609478292796955756, 1.795665307985615078, 6.765970348065053486 ) ) ;
#111 = CARTESIAN_POINT ( 'NONE',  ( 5.564998853760701358, -0.5225777989337824225, 6.981662529645753956 ) ) ;
#112 = CARTESIAN_POINT ( 'NONE',  ( 5.910529672231294995, -1.220891589701988744, -6.893581199168648865 ) ) ;
#113 = AXIS2_PLACEMENT_3D ( 'NONE', #303, #151, #150 ) ;
#114 = CARTESIAN_POINT ( 'NONE',  ( 5.513209139039284779, 0.2645355679088474132, -6.996193262561372528 ) ) ;
#115 = ORIENTED_EDGE ( 'NONE', *, *, #305, .T. ) ;
#116 = CARTESIAN_POINT ( 'NONE',  ( 9.089584772079769337, 1.220756428606235344, -6.893607041439429040 ) ) ;
#117 = ORIENTED_EDGE ( 'NONE', *, *, #245, .F. ) ;
#118 = CONICAL_SURFACE ( 'NONE', #90, 8.000000000000007105, 0.7853981633974442822 ) ;
#119 = DIRECTION ( 'NONE',  ( -1.000000000000000000, -0.000000000000000000, -0.000000000000000000 ) ) ;
#120 = EDGE_LOOP ( 'NONE', ( #69 ) ) ;
#121 =( NAMED_UNIT ( * ) SI_UNIT ( $, .STERADIAN. ) SOLID_ANGLE_UNIT ( ) );
#122 = EDGE_LOOP ( 'NONE', ( #292 ) ) ;
#123 = CARTESIAN_POINT ( 'NONE',  ( 9.500000000000001776, -1.626303258728256651E-16, 7.000000000000000000 ) ) ;
#124 = CLOSED_SHELL ( 'NONE', ( #6, #163, #218, #147, #28, #315, #93, #209 ) ) ;
#125 = DIRECTION ( 'NONE',  ( -1.000000000000000000, -0.000000000000000000, -0.000000000000000000 ) ) ;
#126 = CARTESIAN_POINT ( 'NONE',  ( 43.00000000000000000, 0.000000000000000000, 0.000000000000000000 ) ) ;
#127 = FACE_BOUND ( 'NONE', #189, .T. ) ;
#128 = FACE_OUTER_BOUND ( 'NONE', #120, .T. ) ;
#129 = PRODUCT_RELATED_PRODUCT_CATEGORY ( 'part', '', ( #278 ) ) ;
#130 = CONICAL_SURFACE ( 'NONE', #314, 6.999999999999999112, 0.7853981633974463916 ) ;
#131 = FACE_OUTER_BOUND ( 'NONE', #170, .T. ) ;
#132 = CARTESIAN_POINT ( 'NONE',  ( 5.702787746924896872, 0.8871658075827564272, 6.944612690286008139 ) ) ;
#133 = DIRECTION ( 'NONE',  ( 1.000000000000000000, 0.000000000000000000, 0.000000000000000000 ) ) ;
#134 = CARTESIAN_POINT ( 'NONE',  ( 8.730377801624737089, -1.597957915044079913, 6.817741208852980961 ) ) ;
#135 = CARTESIAN_POINT ( 'NONE',  ( 9.295896173694821130, 0.8898348396013819883, 6.944270883158618624 ) ) ;
#136 = CARTESIAN_POINT ( 'NONE',  ( 9.089584772079769337, -1.220756428606235344, 6.893607041439429040 ) ) ;
#137 = CARTESIAN_POINT ( 'NONE',  ( 7.632522109029011403, 1.999913025515744236, -6.708229863274453919 ) ) ;
#138 = CARTESIAN_POINT ( 'NONE',  ( 9.396346535563479208, -0.6487826489021599752, -6.970924272643943986 ) ) ;
#139 = ORIENTED_EDGE ( 'NONE', *, *, #234, .T. ) ;
#140 = CARTESIAN_POINT ( 'NONE',  ( 9.234723709089168509, 1.003872331890494740, -6.928513884018093094 ) ) ;
#141 = CARTESIAN_POINT ( 'NONE',  ( 9.005165782867898372, -1.323364765228637552, -6.874406388487427577 ) ) ;
#142 = CARTESIAN_POINT ( 'NONE',  ( 9.500000000000001776, -0.1328729097219937816, -7.000000000000000888 ) ) ;
#143 = UNCERTAINTY_MEASURE_WITH_UNIT (LENGTH_MEASURE( 1.000000000000000082E-05 ), #259, 'distance_accuracy_value', 'NONE');
#144 =( GEOMETRIC_REPRESENTATION_CONTEXT ( 3 ) GLOBAL_UNCERTAINTY_ASSIGNED_CONTEXT ( ( #72 ) ) GLOBAL_UNIT_ASSIGNED_CONTEXT ( ( #12, #301, #75 ) ) REPRESENTATION_CONTEXT ( 'NONE', 'WORKASPACE' ) );
#145 = ORIENTED_EDGE ( 'NONE', *, *, #46, .F. ) ;
#146 = DIRECTION ( 'NONE',  ( -1.000000000000000000, -0.000000000000000000, -0.000000000000000000 ) ) ;
#147 = ADVANCED_FACE ( 'NONE', ( #29, #74 ), #5, .F. ) ;
#148 = DIRECTION ( 'NONE',  ( -1.000000000000000000, -0.000000000000000000, -0.000000000000000000 ) ) ;
#149 = VERTEX_POINT ( 'NONE', #47 ) ;
#150 = DIRECTION ( 'NONE',  ( 0.000000000000000000, 0.000000000000000000, 1.000000000000000000 ) ) ;
#151 = DIRECTION ( 'NONE',  ( -1.000000000000000000, -0.000000000000000000, -0.000000000000000000 ) ) ;
#152 = AXIS2_PLACEMENT_3D ( 'NONE', #187, #294, #267 ) ;
#153 = AXIS2_PLACEMENT_3D ( 'NONE', #195, #21, #33 ) ;
#154 = CARTESIAN_POINT ( 'NONE',  ( 9.396862274927171299, -0.6473598323664969678, 6.971063929205214116 ) ) ;
#155 = CARTESIAN_POINT ( 'NONE',  ( 9.500000000000001776, -1.626303258728256651E-16, 7.000000000000000000 ) ) ;
#156 = CARTESIAN_POINT ( 'NONE',  ( 9.005603351506703547, -1.322869345845431921, 6.874502372252739413 ) ) ;
#157 =( GEOMETRIC_REPRESENTATION_CONTEXT ( 3 ) GLOBAL_UNCERTAINTY_ASSIGNED_CONTEXT ( ( #100 ) ) GLOBAL_UNIT_ASSIGNED_CONTEXT ( ( #2, #295, #121 ) ) REPRESENTATION_CONTEXT ( 'NONE', 'WORKASPACE' ) );
#158 = CARTESIAN_POINT ( 'NONE',  ( 6.494841309208952751, 1.733925575223948634, 6.782258415721988953 ) ) ;
#159 = CARTESIAN_POINT ( 'NONE',  ( 5.993421668581459194, -1.321852327708042063, 6.874707648399437154 ) ) ;
#160 = CARTESIAN_POINT ( 'NONE',  ( 9.005603351506703547, 1.322869345845431921, -6.874502372252739413 ) ) ;
#161 = CARTESIAN_POINT ( 'NONE',  ( 8.730377801624737089, 1.597957915044079913, -6.817741208852980961 ) ) ;
#162 = MECHANICAL_DESIGN_GEOMETRIC_PRESENTATION_REPRESENTATION (  '', ( #84 ), #144 ) ;
#163 = ADVANCED_FACE ( 'NONE', ( #31, #274 ), #118, .T. ) ;
#164 = CARTESIAN_POINT ( 'NONE',  ( 5.703414891121686203, 0.8884439563535901918, -6.944449705707822496 ) ) ;
#165 = EDGE_LOOP ( 'NONE', ( #117 ) ) ;
#166 = CARTESIAN_POINT ( 'NONE',  ( 9.486885886765724862, -0.2636606085587738790, -6.996220727038680032 ) ) ;
#167 = ORIENTED_EDGE ( 'NONE', *, *, #50, .T. ) ;
#168 = CARTESIAN_POINT ( 'NONE',  ( 9.500000000000001776, -2.407412430484044816E-32, -7.000000000000000888 ) ) ;
#169 = CARTESIAN_POINT ( 'NONE',  ( 8.146519398062180173, -1.897114250112341249, -6.738223047855723458 ) ) ;
#170 = EDGE_LOOP ( 'NONE', ( #115 ) ) ;
#171 = CARTESIAN_POINT ( 'NONE',  ( 0.000000000000000000, 0.000000000000000000, 0.000000000000000000 ) ) ;
#172 = VERTEX_POINT ( 'NONE', #168 ) ;
#173 = DIRECTION ( 'NONE',  ( -1.000000000000000000, -0.000000000000000000, -0.000000000000000000 ) ) ;
#174 = PRESENTATION_STYLE_ASSIGNMENT (( #9 ) ) ;
#175 = CYLINDRICAL_SURFACE ( 'NONE', #179, 7.000000000000000888 ) ;
#176 = FACE_OUTER_BOUND ( 'NONE', #63, .T. ) ;
#177 = FACE_OUTER_BOUND ( 'NONE', #95, .T. ) ;
#178 = CARTESIAN_POINT ( 'NONE',  ( 5.765501804863589541, 1.004245093456140214, 6.928457968091154662 ) ) ;
#179 = AXIS2_PLACEMENT_3D ( 'NONE', #52, #173, #49 ) ;
#180 = CARTESIAN_POINT ( 'NONE',  ( 5.499888525698342079, 0.2610426872097859063, 7.000031849797815120 ) ) ;
#181 = B_SPLINE_CURVE_WITH_KNOTS ( 'NONE', 3,
 ( #16, #253, #36, #229, #319, #296, #140, #116, #160, #161, #62, #212, #266, #288, #137, #217, #91, #321, #190, #317, #188, #88, #68, #86, #164, #20, #316, #114, #241, #289, #238, #291, #3, #112, #211, #262, #192, #65, #237, #268, #43, #26, #22, #264, #293, #186, #169, #44, #236, #141, #42, #94, #67, #138, #45, #166, #142, #240 ),
 .UNSPECIFIED., .T., .F.,
 ( 4, 2, 2, 2, 2, 2, 2, 2, 2, 2, 2, 2, 2, 2, 2, 2, 2, 2, 2, 2, 2, 2, 2, 2, 2, 2, 2, 2, 4 ),
 ( 0.000000000000000000, 0.0003928108448618230814, 0.0007856216897236461627, 0.001178432534585469298, 0.001571243379447292325, 0.002356865069170938597, 0.002749675914032759239, 0.003142486758894582483, 0.003535297603756403558, 0.003928108448618224634, 0.004713730138341865918, 0.005106540983203685692, 0.005499351828065506334, 0.005892162672927326976, 0.006284973517789146751, 0.007070595207512787167, 0.007463406052374607809, 0.007856216897236426716, 0.008249027742098248225, 0.008641838586960069735, 0.009034649431821887774, 0.009427460276683709284, 0.009820271121545530793, 0.01021308196640735230, 0.01099870365613100053, 0.01139151450099282897, 0.01178432534585465742, 0.01217713619071648240, 0.01256994703557831085 ),
 .UNSPECIFIED. ) ;
#182 = CARTESIAN_POINT ( 'NONE',  ( 8.018895029590666468, 1.935969192517092985, 6.727015297699582952 ) ) ;
#183 = CARTESIAN_POINT ( 'NONE',  ( 9.234723709089168509, -1.003872331890494740, 6.928513884018093094 ) ) ;
#184 = CARTESIAN_POINT ( 'NONE',  ( 9.486891335408076387, -0.2633913472731422289, 6.996222736472787140 ) ) ;
#185 = PRODUCT_DEFINITION_FORMATION_WITH_SPECIFIED_SOURCE ( 'ANY', '', #278, .NOT_KNOWN. ) ;
#186 = CARTESIAN_POINT ( 'NONE',  ( 8.018895029590666468, -1.935969192517092985, -6.727015297699582952 ) ) ;
#187 = CARTESIAN_POINT ( 'NONE',  ( 43.00000000000000000, 0.000000000000000000, 0.000000000000000000 ) ) ;
#188 = CARTESIAN_POINT ( 'NONE',  ( 6.270597139458280900, 1.599017193891166144, -6.817531761756294273 ) ) ;
#189 = EDGE_LOOP ( 'NONE', ( #145 ) ) ;
#190 = CARTESIAN_POINT ( 'NONE',  ( 6.854710131316717359, 1.897605775779491744, -6.738087761030704392 ) ) ;
#191 = EDGE_CURVE ( 'NONE', #197, #197, #51, .T. ) ;
#192 = CARTESIAN_POINT ( 'NONE',  ( 6.279191200365347392, -1.589486636880935944, -6.817555232575997159 ) ) ;
#193 = MANIFOLD_SOLID_BREP ( 'Cut-Extrude1', #124 ) ;
#194 = EDGE_LOOP ( 'NONE', ( #318 ) ) ;
#195 = CARTESIAN_POINT ( 'NONE',  ( 41.49999999999999289, 0.000000000000000000, 0.000000000000000000 ) ) ;
#196 = EDGE_LOOP ( 'NONE', ( #239 ) ) ;
#197 = VERTEX_POINT ( 'NONE', #4 ) ;
#198 = CARTESIAN_POINT ( 'NONE',  ( -4.009977045591169573E-16, 0.000000000000000000, 0.000000000000000000 ) ) ;
#199 = CIRCLE ( 'NONE', #70, 5.500000000000005329 ) ;
#200 = DIRECTION ( 'NONE',  ( 0.000000000000000000, 0.000000000000000000, -1.000000000000000000 ) ) ;
#201 = FACE_BOUND ( 'NONE', #263, .T. ) ;
#202 = CARTESIAN_POINT ( 'NONE',  ( 41.49999999999999289, 0.000000000000000000, 9.500000000000003553 ) ) ;
#203 = CARTESIAN_POINT ( 'NONE',  ( 0.000000000000000000, 0.000000000000000000, 0.000000000000000000 ) ) ;
#204 = CYLINDRICAL_SURFACE ( 'NONE', #258, 2.000000000000000000 ) ;
#205 = CARTESIAN_POINT ( 'NONE',  ( 9.396346535563479208, 0.6487826489021599752, 6.970924272643943986 ) ) ;
#206 = CARTESIAN_POINT ( 'NONE',  ( 5.500056009797519074, -0.1318003588677941484, 6.999983997202043007 ) ) ;
#207 = CARTESIAN_POINT ( 'NONE',  ( 5.992830690723859099, 1.321159223105738523, 6.874839635074177835 ) ) ;
#208 = CARTESIAN_POINT ( 'NONE',  ( 6.854710131316717359, -1.897605775779491744, 6.738087761030704392 ) ) ;
#209 = ADVANCED_FACE ( 'NONE', ( #176, #102 ), #204, .F. ) ;
#210 = CARTESIAN_POINT ( 'NONE',  ( 7.234747573542422927, 1.986633563944614433, 6.712227924078428387 ) ) ;
#211 = CARTESIAN_POINT ( 'NONE',  ( 5.992830690723859099, -1.321159223105738523, -6.874839635074177835 ) ) ;
#212 = CARTESIAN_POINT ( 'NONE',  ( 8.147973272870403960, 1.896593612547576413, -6.738369076789056500 ) ) ;
#213 = ORIENTED_EDGE ( 'NONE', *, *, #256, .T. ) ;
#214 = DIRECTION ( 'NONE',  ( 0.000000000000000000, 0.000000000000000000, 1.000000000000000000 ) ) ;
#215 = ORIENTED_EDGE ( 'NONE', *, *, #234, .F. ) ;
#216 = VERTEX_POINT ( 'NONE', #11 ) ;
#217 = CARTESIAN_POINT ( 'NONE',  ( 7.370116228607364484, 2.000086104380975449, -6.708178261138932008 ) ) ;
#218 = ADVANCED_FACE ( 'NONE', ( #34, #131 ), #96, .T. ) ;
#219 = FACE_OUTER_BOUND ( 'NONE', #196, .T. ) ;
#220 = DIRECTION ( 'NONE',  ( 0.000000000000000000, 0.000000000000000000, 1.000000000000000000 ) ) ;
#221 = PRESENTATION_LAYER_ASSIGNMENT (  '', '', ( #280 ) ) ;
#222 = AXIS2_PLACEMENT_3D ( 'NONE', #203, #104, #133 ) ;
#223 = CARTESIAN_POINT ( 'NONE',  ( 40.00000000000000000, 0.000000000000000000, 7.000000000000002665 ) ) ;
#224 = FILL_AREA_STYLE_COLOUR ( '', #309 ) ;
#225 = FILL_AREA_STYLE ('',( #224 ) ) ;
#226 =( NAMED_UNIT ( * ) PLANE_ANGLE_UNIT ( ) SI_UNIT ( $, .RADIAN. ) );
#227 = FILL_AREA_STYLE_COLOUR ( '', #59 ) ;
#228 = CARTESIAN_POINT ( 'NONE',  ( 8.021219012530091064, -1.935381103778393008, 6.727185445341067549 ) ) ;
#229 = CARTESIAN_POINT ( 'NONE',  ( 9.435655350820805864, 0.5199524433800036816, -6.981844816148541355 ) ) ;
#230 = PRODUCT_CONTEXT ( 'NONE', #282, 'mechanical' ) ;
#231 = CARTESIAN_POINT ( 'NONE',  ( 7.762745978160636717, -1.987041475874555596, 6.712107732003818938 ) ) ;
#232 = AXIS2_PLACEMENT_3D ( 'NONE', #48, #125, #243 ) ;
#233 = CARTESIAN_POINT ( 'NONE',  ( 9.486885886765724862, 0.2636606085587738790, 6.996220727038680032 ) ) ;
#234 = EDGE_CURVE ( 'NONE', #149, #149, #82, .T. ) ;
#235 = CARTESIAN_POINT ( 'NONE',  ( 8.147973272870403960, -1.896593612547576413, 6.738369076789056500 ) ) ;
#236 = CARTESIAN_POINT ( 'NONE',  ( 8.729905465984259649, -1.598313451048314349, -6.817655322462390366 ) ) ;
#237 = CARTESIAN_POINT ( 'NONE',  ( 6.609478292796955756, -1.795665307985615078, -6.765970348065053486 ) ) ;
#238 = CARTESIAN_POINT ( 'NONE',  ( 5.552701440454314685, -0.5255173936034566173, -6.984458878246900149 ) ) ;
#239 = ORIENTED_EDGE ( 'NONE', *, *, #302, .F. ) ;
#240 = CARTESIAN_POINT ( 'NONE',  ( 9.500000000000001776, 1.626303258728256651E-16, -7.000000000000000000 ) ) ;
#241 = CARTESIAN_POINT ( 'NONE',  ( 5.500056009797519074, 0.1318003588677941484, -6.999983997202043007 ) ) ;
#242 = EDGE_LOOP ( 'NONE', ( #92 ) ) ;
#243 = DIRECTION ( 'NONE',  ( 0.000000000000000000, 0.000000000000000000, 1.000000000000000000 ) ) ;
#244 = DIRECTION ( 'NONE',  ( 1.000000000000000000, 0.000000000000000000, 0.000000000000000000 ) ) ;
#245 = EDGE_CURVE ( 'NONE', #246, #246, #286, .T. ) ;
#246 = VERTEX_POINT ( 'NONE', #300 ) ;
#247 = PLANE ( 'NONE',  #8 ) ;
#248 = PRODUCT_DEFINITION_SHAPE ( 'NONE', 'NONE',  #103 ) ;
#249 = DIRECTION ( 'NONE',  ( 0.000000000000000000, 0.000000000000000000, -1.000000000000000000 ) ) ;
#250 = PRODUCT_DEFINITION_CONTEXT ( 'detailed design', #276, 'design' ) ;
#251 = DIRECTION ( 'NONE',  ( 1.000000000000000000, 0.000000000000000000, 0.000000000000000000 ) ) ;
#252 = CIRCLE ( 'NONE', #113, 7.000000000000002665 ) ;
#253 = CARTESIAN_POINT ( 'NONE',  ( 9.500000000000000000, 0.1328729097219921995, -6.999999999999999112 ) ) ;
#254 = SURFACE_SIDE_STYLE ('',( #310 ) ) ;
#255 = CARTESIAN_POINT ( 'NONE',  ( 6.490204064754155233, -1.746292916079221325, 6.779483643592844722 ) ) ;
#256 = EDGE_CURVE ( 'NONE', #172, #172, #181, .T. ) ;
#257 = CARTESIAN_POINT ( 'NONE',  ( 6.270597139458280900, -1.599017193891166144, 6.817531761756294273 ) ) ;
#258 = AXIS2_PLACEMENT_3D ( 'NONE', #306, #76, #251 ) ;
#259 =( LENGTH_UNIT ( ) NAMED_UNIT ( * ) SI_UNIT ( .MILLI., .METRE. ) );
#260 = CARTESIAN_POINT ( 'NONE',  ( 8.508453078299064387, -1.746645116476648552, 6.779378394943107011 ) ) ;
#261 = CARTESIAN_POINT ( 'NONE',  ( 6.853337219325693397, 1.897174229582900162, 6.738211824498034019 ) ) ;
#262 = CARTESIAN_POINT ( 'NONE',  ( 6.177237321607107923, -1.505762237629875377, -6.836780074312184041 ) ) ;
#263 = EDGE_LOOP ( 'NONE', ( #139 ) ) ;
#264 = CARTESIAN_POINT ( 'NONE',  ( 7.631135858525214033, -2.000047926892093653, -6.708189643461916596 ) ) ;
#265 = ORIENTED_EDGE ( 'NONE', *, *, #302, .T. ) ;
#266 = CARTESIAN_POINT ( 'NONE',  ( 8.021219012530091064, 1.935381103778393008, -6.727185445341067549 ) ) ;
#267 = DIRECTION ( 'NONE',  ( -0.000000000000000000, 0.000000000000000000, 1.000000000000000000 ) ) ;
#268 = CARTESIAN_POINT ( 'NONE',  ( 6.853337219325693397, -1.897174229582900162, -6.738211824498034019 ) ) ;
#269 =( GEOMETRIC_REPRESENTATION_CONTEXT ( 3 ) GLOBAL_UNCERTAINTY_ASSIGNED_CONTEXT ( ( #143 ) ) GLOBAL_UNIT_ASSIGNED_CONTEXT ( ( #259, #226, #109 ) ) REPRESENTATION_CONTEXT ( 'NONE', 'WORKASPACE' ) );
#270 = FACE_OUTER_BOUND ( 'NONE', #165, .T. ) ;
#271 = DIRECTION ( 'NONE',  ( 1.000000000000000000, 0.000000000000000000, 0.000000000000000000 ) ) ;
#272 = FACE_OUTER_BOUND ( 'NONE', #66, .T. ) ;
#273 = DIRECTION ( 'NONE',  ( 0.000000000000000000, 0.000000000000000000, 1.000000000000000000 ) ) ;
#274 = FACE_BOUND ( 'NONE', #61, .T. ) ;
#275 = CARTESIAN_POINT ( 'NONE',  ( 1.499999999999999112, 0.000000000000000000, 0.000000000000000000 ) ) ;
#276 = APPLICATION_CONTEXT ( 'automotive_design' ) ;
#277 = SURFACE_STYLE_USAGE ( .BOTH. , #254 ) ;
#278 = PRODUCT ( '76.04.01.0007', '76.04.01.0007', '', ( #230 ) ) ;
#279 = CARTESIAN_POINT ( 'NONE',  ( 9.435376982006561164, 0.5211030426447135211, 6.981767182948574124 ) ) ;
#280 = STYLED_ITEM ( 'NONE', ( #101 ), #108 ) ;
#281 = CARTESIAN_POINT ( 'NONE',  ( 9.005165782867898372, 1.323364765228637552, 6.874406388487427577 ) ) ;
#282 = APPLICATION_CONTEXT ( 'automotive_design' ) ;
#283 = CARTESIAN_POINT ( 'NONE',  ( 7.370116228607364484, -2.000086104380975449, 6.708178261138932008 ) ) ;
#284 = FILL_AREA_STYLE ('',( #227 ) ) ;
#285 = CARTESIAN_POINT ( 'NONE',  ( 9.435655350820805864, -0.5199524433800036816, 6.981844816148541355 ) ) ;
#286 = CIRCLE ( 'NONE', #297, 6.999999999999999112 ) ;
#287 = CARTESIAN_POINT ( 'NONE',  ( 7.632522109029011403, -1.999913025515744236, 6.708229863274453919 ) ) ;
#288 = CARTESIAN_POINT ( 'NONE',  ( 7.762745978160636717, 1.987041475874555596, -6.712107732003818938 ) ) ;
#289 = CARTESIAN_POINT ( 'NONE',  ( 5.499888525698342079, -0.2610426872097859063, -7.000031849797815120 ) ) ;
#290 = VERTEX_POINT ( 'NONE', #30 ) ;
#291 = CARTESIAN_POINT ( 'NONE',  ( 5.702787746924896872, -0.8871658075827564272, -6.944612690286008139 ) ) ;
#292 = ORIENTED_EDGE ( 'NONE', *, *, #191, .T. ) ;
#293 = CARTESIAN_POINT ( 'NONE',  ( 7.761421847467224744, -1.987180762732975614, -6.712065564793263661 ) ) ;
#294 = DIRECTION ( 'NONE',  ( -1.000000000000000000, 0.000000000000000000, -0.000000000000000000 ) ) ;
#295 =( NAMED_UNIT ( * ) PLANE_ANGLE_UNIT ( ) SI_UNIT ( $, .RADIAN. ) );
#296 = CARTESIAN_POINT ( 'NONE',  ( 9.296213096854549107, 0.8892579790429944175, -6.944352187521592334 ) ) ;
#297 = AXIS2_PLACEMENT_3D ( 'NONE', #54, #81, #308 ) ;
#298 = AXIS2_PLACEMENT_3D ( 'NONE', #24, #119, #214 ) ;
#299 = DIRECTION ( 'NONE',  ( -1.000000000000000000, -0.000000000000000000, -0.000000000000000000 ) ) ;
#300 = CARTESIAN_POINT ( 'NONE',  ( 1.499999999999999112, 0.000000000000000000, 6.999999999999999112 ) ) ;
#301 =( NAMED_UNIT ( * ) PLANE_ANGLE_UNIT ( ) SI_UNIT ( $, .RADIAN. ) );
#302 = EDGE_CURVE ( 'NONE', #216, #216, #304, .T. ) ;
#303 = CARTESIAN_POINT ( 'NONE',  ( 40.00000000000000000, 0.000000000000000000, 0.000000000000000000 ) ) ;
#304 = CIRCLE ( 'NONE', #298, 8.000000000000007105 ) ;
#305 = EDGE_CURVE ( 'NONE', #98, #98, #13, .T. ) ;
#306 = CARTESIAN_POINT ( 'NONE',  ( 7.500000000000001776, -2.407412430484044816E-32, -9.500000000000005329 ) ) ;
#307 = CARTESIAN_POINT ( 'NONE',  ( 5.766293639281745875, -1.005573473014547581, 6.928260705410964171 ) ) ;
#308 = DIRECTION ( 'NONE',  ( 0.000000000000000000, 0.000000000000000000, 1.000000000000000000 ) ) ;
#309 = COLOUR_RGB ( '',0.8274509803921568096, 0.8392156862745098200, 0.8274509803921568096 ) ;
#310 = SURFACE_STYLE_FILL_AREA ( #284 ) ;
#311 = CARTESIAN_POINT ( 'NONE',  ( 6.279191200365347392, 1.589486636880935944, 6.817555232575997159 ) ) ;
#312 = CARTESIAN_POINT ( 'NONE',  ( 5.911130081222310650, -1.221641574287992693, 6.893443716731381343 ) ) ;
#313 = CARTESIAN_POINT ( 'NONE',  ( 7.631135858525214033, 2.000047926892093653, 6.708189643461916596 ) ) ;
#314 = AXIS2_PLACEMENT_3D ( 'NONE', #275, #322, #200 ) ;
#315 = ADVANCED_FACE ( 'NONE', ( #127, #177 ), #130, .T. ) ;
#316 = CARTESIAN_POINT ( 'NONE',  ( 5.564998853760701358, 0.5225777989337824225, -6.981662529645753956 ) ) ;
#317 = CARTESIAN_POINT ( 'NONE',  ( 6.490204064754155233, 1.746292916079221325, -6.779483643592844722 ) ) ;
#318 = ORIENTED_EDGE ( 'NONE', *, *, #305, .F. ) ;
#319 = CARTESIAN_POINT ( 'NONE',  ( 9.396862274927171299, 0.6473598323664969678, -6.971063929205214116 ) ) ;
#320 = EDGE_LOOP ( 'NONE', ( #1 ) ) ;
#321 = CARTESIAN_POINT ( 'NONE',  ( 6.979725891775403923, 1.935586691976381779, -6.727125645283256183 ) ) ;
#322 = DIRECTION ( 'NONE',  ( 1.000000000000000000, 0.000000000000000000, 0.000000000000000000 ) ) ;
ENDSEC;
END-ISO-10303-21;
