ISO-10303-21;
HEADER;
FILE_DESCRIPTION (( 'STEP AP214' ),
    '1' );
FILE_NAME ('76.04.01.0006.step',
    '2021-04-02T17:59:44',
    ( '' ),
    ( '' ),
    'SwSTEP 2.0',
    'SolidWorks 2021',
    '' );
FILE_SCHEMA (( 'AUTOMOTIVE_DESIGN' ));
ENDSEC;

DATA;
#1 = CARTESIAN_POINT ( 'NONE',  ( 7.500000000000007994, 0.1331554747843276820, -6.000000000000001776 ) ) ;
#2 = CARTESIAN_POINT ( 'NONE',  ( 0.000000000000000000, 0.000000000000000000, 0.000000000000000000 ) ) ;
#3 = ORIENTED_EDGE ( 'NONE', *, *, #191, .T. ) ;
#4 = FACE_OUTER_BOUND ( 'NONE', #321, .T. ) ;
#5 = CARTESIAN_POINT ( 'NONE',  ( 7.500000000000008882, 5.421010862427522170E-17, 6.000000000000002665 ) ) ;
#6 = CARTESIAN_POINT ( 'NONE',  ( 6.730594376309759319, 1.597705364247402171, -5.786432247724127009 ) ) ;
#7 = CARTESIAN_POINT ( 'NONE',  ( 7.486826752465751689, -0.2639758135586129928, -5.995572583537809308 ) ) ;
#8 = CARTESIAN_POINT ( 'NONE',  ( 38.00000000000000711, 0.000000000000000000, 0.000000000000000000 ) ) ;
#9 = AXIS2_PLACEMENT_3D ( 'NONE', #207, #69, #164 ) ;
#10 = CARTESIAN_POINT ( 'NONE',  ( 1.499999999999999556, 0.000000000000000000, 6.000000000000000000 ) ) ;
#11 = CARTESIAN_POINT ( 'NONE',  ( 7.234231897006853096, -1.004668640024029225, -5.916311260470016542 ) ) ;
#12 = CARTESIAN_POINT ( 'NONE',  ( 36.50000000000000711, 0.000000000000000000, 8.500000000000001776 ) ) ;
#13 = DIRECTION ( 'NONE',  ( 1.000000000000000000, 0.000000000000000000, 0.000000000000000000 ) ) ;
#14 = DIRECTION ( 'NONE',  ( -1.000000000000000000, -0.000000000000000000, -0.000000000000000000 ) ) ;
#15 =( NAMED_UNIT ( * ) SI_UNIT ( $, .STERADIAN. ) SOLID_ANGLE_UNIT ( ) );
#16 = CARTESIAN_POINT ( 'NONE',  ( 3.603486032481512780, -0.6482624151756810615, 5.966112188287907792 ) ) ;
#17 = CARTESIAN_POINT ( 'NONE',  ( 4.177705992343601515, -1.506147378463205566, 5.808656500676011802 ) ) ;
#18 = CARTESIAN_POINT ( 'NONE',  ( 0.000000000000000000, 0.000000000000000000, 0.000000000000000000 ) ) ;
#19 = ORIENTED_EDGE ( 'NONE', *, *, #313, .F. ) ;
#20 = AXIS2_PLACEMENT_3D ( 'NONE', #235, #14, #120 ) ;
#21 = CARTESIAN_POINT ( 'NONE',  ( 3.766254548163098015, 1.005501256792735276, 5.916168434159371436 ) ) ;
#22 = CARTESIAN_POINT ( 'NONE',  ( 5.236292779252639029, -1.986875878547647689, 5.661542738627884042 ) ) ;
#23 = EDGE_LOOP ( 'NONE', ( #198 ) ) ;
#24 = FACE_OUTER_BOUND ( 'NONE', #118, .T. ) ;
#25 = B_SPLINE_CURVE_WITH_KNOTS ( 'NONE', 3,
 ( #32, #1, #129, #77, #226, #222, #151, #79, #56, #6, #195, #177, #53, #199, #75, #124, #81, #251, #73, #104, #50, #145, #219, #29, #170, #97, #175, #281, #277, #55, #150, #51, #146, #253, #30, #128, #224, #248, #220, #98, #196, #310, #259, #230, #112, #265, #110, #64, #63, #133, #85, #11, #159, #289, #40, #7, #232, #234 ),
 .UNSPECIFIED., .T., .F.,
 ( 4, 2, 2, 2, 2, 2, 2, 2, 2, 2, 2, 2, 2, 2, 2, 2, 2, 2, 2, 2, 2, 2, 2, 2, 2, 2, 2, 2, 4 ),
 ( 0.000000000000000000, 0.0003935945383190280118, 0.0007871890766380560235, 0.001180783614957084090, 0.001574378153276112047, 0.002361567229914170781, 0.002755161768233198739, 0.003148756306552227130, 0.003542350844871255088, 0.003935945383190283045, 0.004329539921509311003, 0.004723134459828338960, 0.005116728998147366918, 0.005510323536466394875, 0.005903918074785422833, 0.006297512613104450790, 0.007084701689742506706, 0.007478296228061534663, 0.007871890766380562621, 0.008659079843018618536, 0.009052674381337647361, 0.009446268919656677920, 0.009839863457975706745, 0.01023345799629473730, 0.01102064707293279495, 0.01141424161125182551, 0.01180783614957085781, 0.01220143068788988663, 0.01259502522620891893 ),
 .UNSPECIFIED. ) ;
#26 = CIRCLE ( 'NONE', #262, 4.500000000000005329 ) ;
#27 = CYLINDRICAL_SURFACE ( 'NONE', #296, 8.500000000000003553 ) ;
#28 = ORIENTED_EDGE ( 'NONE', *, *, #80, .F. ) ;
#29 = CARTESIAN_POINT ( 'NONE',  ( 3.993647623109752409, 1.322060469484170886, -5.853300469267279205 ) ) ;
#30 = CARTESIAN_POINT ( 'NONE',  ( 3.766254548163098015, -1.005501256792735276, -5.916168434159371436 ) ) ;
#31 =( GEOMETRIC_REPRESENTATION_CONTEXT ( 3 ) GLOBAL_UNCERTAINTY_ASSIGNED_CONTEXT ( ( #78 ) ) GLOBAL_UNIT_ASSIGNED_CONTEXT ( ( #89, #308, #211 ) ) REPRESENTATION_CONTEXT ( 'NONE', 'WORKASPACE' ) );
#32 = CARTESIAN_POINT ( 'NONE',  ( 7.500000000000008882, -5.421010862427522170E-17, -6.000000000000002665 ) ) ;
#33 = APPLICATION_CONTEXT ( 'automotive_design' ) ;
#34 = FACE_OUTER_BOUND ( 'NONE', #74, .T. ) ;
#35 = ADVANCED_FACE ( 'NONE', ( #138, #47 ), #140, .F. ) ;
#36 = DIRECTION ( 'NONE',  ( -1.000000000000000000, -0.000000000000000000, -0.000000000000000000 ) ) ;
#37 = FILL_AREA_STYLE_COLOUR ( '', #57 ) ;
#38 = FACE_BOUND ( 'NONE', #148, .T. ) ;
#39 =( LENGTH_UNIT ( ) NAMED_UNIT ( * ) SI_UNIT ( .MILLI., .METRE. ) );
#40 = CARTESIAN_POINT ( 'NONE',  ( 7.435413015933839631, -0.5209032848921311132, -5.978731772073636819 ) ) ;
#41 = ADVANCED_FACE ( 'NONE', ( #237 ), #45, .F. ) ;
#42 = SURFACE_STYLE_FILL_AREA ( #283 ) ;
#43 = DIRECTION ( 'NONE',  ( -1.000000000000000000, -0.000000000000000000, -0.000000000000000000 ) ) ;
#44 = COLOUR_RGB ( '',0.8274509803921568096, 0.8392156862745098200, 0.8274509803921568096 ) ;
#45 = PLANE ( 'NONE',  #231 ) ;
#46 = CARTESIAN_POINT ( 'NONE',  ( 3.766590847567969025, -1.006084829641461287, 5.916069256194004922 ) ) ;
#47 = FACE_OUTER_BOUND ( 'NONE', #278, .T. ) ;
#48 =( NAMED_UNIT ( * ) PLANE_ANGLE_UNIT ( ) SI_UNIT ( $, .RADIAN. ) );
#49 = CARTESIAN_POINT ( 'NONE',  ( 3.552885797923471589, 0.5263928004518690917, 5.981818434031924703 ) ) ;
#50 = CARTESIAN_POINT ( 'NONE',  ( 4.495143702082088133, 1.734099221172235916, -5.744435912051455873 ) ) ;
#51 = CARTESIAN_POINT ( 'NONE',  ( 3.499895010714262789, -0.2615395899050729778, -6.000034996426078848 ) ) ;
#52 = ORIENTED_EDGE ( 'NONE', *, *, #304, .T. ) ;
#53 = CARTESIAN_POINT ( 'NONE',  ( 6.021889177444241348, 1.935205112750687961, -5.679412934121341294 ) ) ;
#54 = ORIENTED_EDGE ( 'NONE', *, *, #167, .T. ) ;
#55 = CARTESIAN_POINT ( 'NONE',  ( 3.513182583331854403, 0.2645559447028005828, -5.995568316425109678 ) ) ;
#56 = CARTESIAN_POINT ( 'NONE',  ( 7.005285961887270929, 1.323204598855622249, -5.853032951955676744 ) ) ;
#57 = COLOUR_RGB ( '',0.8274509803921568096, 0.8392156862745098200, 0.8274509803921568096 ) ;
#58 = FACE_OUTER_BOUND ( 'NONE', #218, .T. ) ;
#59 = VERTEX_POINT ( 'NONE', #210 ) ;
#60 = CARTESIAN_POINT ( 'NONE',  ( 7.500000000000007105, -2.407412430484044816E-32, -6.000000000000000888 ) ) ;
#61 = FACE_OUTER_BOUND ( 'NONE', #252, .T. ) ;
#62 = SURFACE_STYLE_FILL_AREA ( #288 ) ;
#63 = CARTESIAN_POINT ( 'NONE',  ( 6.730440375147365373, -1.597885448045709200, -5.786391917076067593 ) ) ;
#64 = CARTESIAN_POINT ( 'NONE',  ( 6.509186423930064080, -1.746306335040984870, -5.741211322261797534 ) ) ;
#65 = AXIS2_PLACEMENT_3D ( 'NONE', #8, #181, #109 ) ;
#66 = CARTESIAN_POINT ( 'NONE',  ( 3.993275932419206420, 1.321681097398636373, 5.853391493940652168 ) ) ;
#67 = CARTESIAN_POINT ( 'NONE',  ( 7.234225729261710924, -1.004722823144662991, 5.916307102267759355 ) ) ;
#68 = CARTESIAN_POINT ( 'NONE',  ( 5.369888794154905831, -2.000091161925000804, 5.656822018893532977 ) ) ;
#69 = DIRECTION ( 'NONE',  ( -1.000000000000000000, -0.000000000000000000, -0.000000000000000000 ) ) ;
#70 = CARTESIAN_POINT ( 'NONE',  ( 7.500000000000008882, 5.421010862427522170E-17, 6.000000000000002665 ) ) ;
#71 = CARTESIAN_POINT ( 'NONE',  ( 5.631644983969305684, 2.000010835952009458, 5.656850418404820502 ) ) ;
#72 = ORIENTED_EDGE ( 'NONE', *, *, #167, .F. ) ;
#73 = CARTESIAN_POINT ( 'NONE',  ( 4.853806021728090059, 1.897312994660367291, -5.692365997572657932 ) ) ;
#74 = EDGE_LOOP ( 'NONE', ( #52 ) ) ;
#75 = CARTESIAN_POINT ( 'NONE',  ( 5.632898858583441637, 1.999907866698910075, -5.656886823524491348 ) ) ;
#76 = EDGE_LOOP ( 'NONE', ( #54 ) ) ;
#77 = CARTESIAN_POINT ( 'NONE',  ( 7.435431273475680669, 0.5208358549357979816, -5.978737698794990507 ) ) ;
#78 = UNCERTAINTY_MEASURE_WITH_UNIT (LENGTH_MEASURE( 1.000000000000000082E-05 ), #89, 'distance_accuracy_value', 'NONE');
#79 = CARTESIAN_POINT ( 'NONE',  ( 7.089069900028459159, 1.221418717805088816, -5.875397347880998211 ) ) ;
#80 = EDGE_CURVE ( 'NONE', #197, #197, #227, .T. ) ;
#81 = CARTESIAN_POINT ( 'NONE',  ( 5.236292779252639029, 1.986875878547647689, -5.661542738627884042 ) ) ;
#82 = AXIS2_PLACEMENT_3D ( 'NONE', #214, #168, #244 ) ;
#83 = PRODUCT_CONTEXT ( 'NONE', #33, 'mechanical' ) ;
#84 = DIRECTION ( 'NONE',  ( 0.000000000000000000, 0.000000000000000000, 1.000000000000000000 ) ) ;
#85 = CARTESIAN_POINT ( 'NONE',  ( 7.089491420560611878, -1.220834293754859301, -5.875513733641011704 ) ) ;
#86 = DIRECTION ( 'NONE',  ( -1.000000000000000000, -0.000000000000000000, -0.000000000000000000 ) ) ;
#87 =( GEOMETRIC_REPRESENTATION_CONTEXT ( 3 ) GLOBAL_UNCERTAINTY_ASSIGNED_CONTEXT ( ( #260 ) ) GLOBAL_UNIT_ASSIGNED_CONTEXT ( ( #144, #48, #186 ) ) REPRESENTATION_CONTEXT ( 'NONE', 'WORKASPACE' ) );
#88 = VERTEX_POINT ( 'NONE', #12 ) ;
#89 =( LENGTH_UNIT ( ) NAMED_UNIT ( * ) SI_UNIT ( .MILLI., .METRE. ) );
#90 = CARTESIAN_POINT ( 'NONE',  ( 3.565204938273411006, -0.5234513961886764211, 5.978530582059971898 ) ) ;
#91 = AXIS2_PLACEMENT_3D ( 'NONE', #184, #13, #290 ) ;
#92 = CARTESIAN_POINT ( 'NONE',  ( 3.911482682720856197, -1.222099303196796605, 5.875249392293443229 ) ) ;
#93 = EDGE_LOOP ( 'NONE', ( #72 ) ) ;
#94 = CARTESIAN_POINT ( 'NONE',  ( 6.148890556403808105, -1.896277138988046174, 5.692705594307804873 ) ) ;
#95 = CARTESIAN_POINT ( 'NONE',  ( 4.270303529868326287, 1.598774514288298532, 5.786194921595080309 ) ) ;
#96 = ORIENTED_EDGE ( 'NONE', *, *, #267, .F. ) ;
#97 = CARTESIAN_POINT ( 'NONE',  ( 3.766590847567969025, 1.006084829641461287, -5.916069256194004922 ) ) ;
#98 = CARTESIAN_POINT ( 'NONE',  ( 4.852958642862336802, -1.897014113617890629, -5.692465502448547099 ) ) ;
#99 = CARTESIAN_POINT ( 'NONE',  ( 7.089491420560611878, 1.220834293754859301, 5.875513733641011704 ) ) ;
#100 = EDGE_LOOP ( 'NONE', ( #19 ) ) ;
#101 = PRODUCT_DEFINITION_FORMATION_WITH_SPECIFIED_SOURCE ( 'ANY', '', #257, .NOT_KNOWN. ) ;
#102 = FACE_BOUND ( 'NONE', #245, .T. ) ;
#103 = ADVANCED_FACE ( 'NONE', ( #4, #24 ), #27, .T. ) ;
#104 = CARTESIAN_POINT ( 'NONE',  ( 4.610463951849481212, 1.796131642253072203, -5.725097237054209032 ) ) ;
#105 = CARTESIAN_POINT ( 'NONE',  ( 36.50000000000000711, 0.000000000000000000, 0.000000000000000000 ) ) ;
#106 =( GEOMETRIC_REPRESENTATION_CONTEXT ( 3 ) GLOBAL_UNCERTAINTY_ASSIGNED_CONTEXT ( ( #225 ) ) GLOBAL_UNIT_ASSIGNED_CONTEXT ( ( #39, #183, #15 ) ) REPRESENTATION_CONTEXT ( 'NONE', 'WORKASPACE' ) );
#107 = ADVANCED_FACE ( 'NONE', ( #102, #305, #127, #303 ), #149, .T. ) ;
#108 = SURFACE_STYLE_USAGE ( .BOTH. , #132 ) ;
#109 = DIRECTION ( 'NONE',  ( 0.000000000000000000, 0.000000000000000000, 1.000000000000000000 ) ) ;
#110 = CARTESIAN_POINT ( 'NONE',  ( 6.147937164283445277, -1.896625475588840537, -5.692590370035004455 ) ) ;
#111 = CARTESIAN_POINT ( 'NONE',  ( -1.841572700620160951E-16, 0.000000000000000000, 4.500000000000005329 ) ) ;
#112 = CARTESIAN_POINT ( 'NONE',  ( 5.762164732749054608, -1.987117945956035747, -5.661458031085127907 ) ) ;
#113 = DIRECTION ( 'NONE',  ( 0.000000000000000000, 0.000000000000000000, -1.000000000000000000 ) ) ;
#114 = PRODUCT_RELATED_PRODUCT_CATEGORY ( 'part', '', ( #257 ) ) ;
#115 = CARTESIAN_POINT ( 'NONE',  ( 7.089069900028459159, -1.221418717805088816, 5.875397347880998211 ) ) ;
#116 = CARTESIAN_POINT ( 'NONE',  ( 4.977888273212714765, 1.935080626499934509, 5.679454788893231409 ) ) ;
#117 = STYLED_ITEM ( 'NONE', ( #136 ), #205 ) ;
#118 = EDGE_LOOP ( 'NONE', ( #200 ) ) ;
#119 = CARTESIAN_POINT ( 'NONE',  ( 4.488404242454719473, 1.745271979882817126, 5.741544207925434407 ) ) ;
#120 = DIRECTION ( 'NONE',  ( 0.000000000000000000, 0.000000000000000000, 1.000000000000000000 ) ) ;
#121 = DIRECTION ( 'NONE',  ( 0.000000000000000000, 0.000000000000000000, 1.000000000000000000 ) ) ;
#122 = CARTESIAN_POINT ( 'NONE',  ( 35.00000000000000000, 0.000000000000000000, 0.000000000000000000 ) ) ;
#123 = CARTESIAN_POINT ( 'NONE',  ( 4.853806021728090059, -1.897312994660367291, 5.692365997572657932 ) ) ;
#124 = CARTESIAN_POINT ( 'NONE',  ( 5.369888794154905831, 2.000091161925000804, -5.656822018893532977 ) ) ;
#125 = DIRECTION ( 'NONE',  ( 0.000000000000000000, 0.000000000000000000, 1.000000000000000000 ) ) ;
#126 = EDGE_LOOP ( 'NONE', ( #169 ) ) ;
#127 = FACE_OUTER_BOUND ( 'NONE', #194, .T. ) ;
#128 = CARTESIAN_POINT ( 'NONE',  ( 3.911036666986108301, -1.221516105302874911, -5.875370637095268300 ) ) ;
#129 = CARTESIAN_POINT ( 'NONE',  ( 7.486836486607476360, 0.2639033490118382064, -5.995575825653401303 ) ) ;
#130 = PRODUCT_DEFINITION_CONTEXT ( 'detailed design', #209, 'design' ) ;
#131 = DIRECTION ( 'NONE',  ( -0.000000000000000000, -0.000000000000000000, 1.000000000000000000 ) ) ;
#132 = SURFACE_SIDE_STYLE ('',( #62 ) ) ;
#133 = CARTESIAN_POINT ( 'NONE',  ( 7.005514622960268056, -1.322962990986547016, -5.853089889558318326 ) ) ;
#134 = VERTEX_POINT ( 'NONE', #60 ) ;
#135 = CARTESIAN_POINT ( 'NONE',  ( -1.841572700620160951E-16, 0.000000000000000000, 0.000000000000000000 ) ) ;
#136 = PRESENTATION_STYLE_ASSIGNMENT (( #203 ) ) ;
#137 = SURFACE_SIDE_STYLE ('',( #42 ) ) ;
#138 = FACE_BOUND ( 'NONE', #249, .T. ) ;
#139 = CARTESIAN_POINT ( 'NONE',  ( 4.978963561364603940, -1.935390990121356847, 5.679348875832658905 ) ) ;
#140 = PLANE ( 'NONE',  #82 ) ;
#141 = CARTESIAN_POINT ( 'NONE',  ( 3.513182583331854403, -0.2645559447028005828, 5.995568316425109678 ) ) ;
#142 = CARTESIAN_POINT ( 'NONE',  ( 7.005285961887270929, -1.323204598855622249, 5.853032951955676744 ) ) ;
#143 = ORIENTED_EDGE ( 'NONE', *, *, #80, .T. ) ;
#144 =( LENGTH_UNIT ( ) NAMED_UNIT ( * ) SI_UNIT ( .MILLI., .METRE. ) );
#145 = CARTESIAN_POINT ( 'NONE',  ( 4.279502809926702511, 1.589724157631955626, -5.786054023181769423 ) ) ;
#146 = CARTESIAN_POINT ( 'NONE',  ( 3.552885797923471589, -0.5263928004518690917, -5.981818434031924703 ) ) ;
#147 = MECHANICAL_DESIGN_GEOMETRIC_PRESENTATION_REPRESENTATION (  '', ( #117 ), #31 ) ;
#148 = EDGE_LOOP ( 'NONE', ( #221 ) ) ;
#149 = CYLINDRICAL_SURFACE ( 'NONE', #284, 6.000000000000000888 ) ;
#150 = CARTESIAN_POINT ( 'NONE',  ( 3.500052735620204469, 0.1319722357661348433, -5.999982421461185211 ) ) ;
#151 = CARTESIAN_POINT ( 'NONE',  ( 7.234225729261710924, 1.004722823144662991, -5.916307102267759355 ) ) ;
#152 = CARTESIAN_POINT ( 'NONE',  ( 38.00000000000000711, 0.000000000000000000, 7.000000000000006217 ) ) ;
#153 = FACE_OUTER_BOUND ( 'NONE', #93, .T. ) ;
#154 = VERTEX_POINT ( 'NONE', #229 ) ;
#155 = CARTESIAN_POINT ( 'NONE',  ( 1.499999999999999556, 0.000000000000000000, 0.000000000000000000 ) ) ;
#156 = AXIS2_PLACEMENT_3D ( 'NONE', #258, #36, #266 ) ;
#157 = AXIS2_PLACEMENT_3D ( 'NONE', #105, #86, #84 ) ;
#158 = VERTEX_POINT ( 'NONE', #152 ) ;
#159 = CARTESIAN_POINT ( 'NONE',  ( 7.295696557186566622, -0.8902990621872464150, -5.934832031573172628 ) ) ;
#160 = AXIS2_PLACEMENT_3D ( 'NONE', #155, #261, #113 ) ;
#161 = CARTESIAN_POINT ( 'NONE',  ( 6.020644071227415850, 1.935535540705378921, 5.679299863499476686 ) ) ;
#162 = CARTESIAN_POINT ( 'NONE',  ( 3.911036666986108301, 1.221516105302874911, 5.875370637095268300 ) ) ;
#163 = CARTESIAN_POINT ( 'NONE',  ( 5.632898858583441637, -1.999907866698910075, 5.656886823524491348 ) ) ;
#164 = DIRECTION ( 'NONE',  ( 0.000000000000000000, 0.000000000000000000, 1.000000000000000000 ) ) ;
#165 = CIRCLE ( 'NONE', #192, 8.500000000000003553 ) ;
#166 = CARTESIAN_POINT ( 'NONE',  ( 5.368025973940299345, 1.999989150514403624, 5.656858085364785182 ) ) ;
#167 = EDGE_CURVE ( 'NONE', #134, #134, #25, .T. ) ;
#168 = DIRECTION ( 'NONE',  ( 1.000000000000000000, 0.000000000000000000, 0.000000000000000000 ) ) ;
#169 = ORIENTED_EDGE ( 'NONE', *, *, #291, .T. ) ;
#170 = CARTESIAN_POINT ( 'NONE',  ( 3.911482682720856197, 1.222099303196796605, -5.875249392293443229 ) ) ;
#171 = ORIENTED_EDGE ( 'NONE', *, *, #304, .F. ) ;
#172 = CARTESIAN_POINT ( 'NONE',  ( 7.435413015933839631, 0.5209032848921311132, 5.978731772073636819 ) ) ;
#173 = ADVANCED_BREP_SHAPE_REPRESENTATION ( '76.04.01.0006', ( #205, #236 ), #106 ) ;
#174 = ORIENTED_EDGE ( 'NONE', *, *, #298, .F. ) ;
#175 = CARTESIAN_POINT ( 'NONE',  ( 3.703735421006609574, 0.8890685857546740678, -5.935005968993722014 ) ) ;
#176 = CARTESIAN_POINT ( 'NONE',  ( 7.500000000000009770, 0.1331554747843287090, 6.000000000000003553 ) ) ;
#177 = CARTESIAN_POINT ( 'NONE',  ( 6.148890556403808105, 1.896277138988046174, -5.692705594307804873 ) ) ;
#178 = PRODUCT_DEFINITION_SHAPE ( 'NONE', 'NONE',  #213 ) ;
#179 = VERTEX_POINT ( 'NONE', #111 ) ;
#180 = PLANE ( 'NONE',  #91 ) ;
#181 = DIRECTION ( 'NONE',  ( -1.000000000000000000, -0.000000000000000000, -0.000000000000000000 ) ) ;
#182 = ADVANCED_FACE ( 'NONE', ( #58 ), #180, .F. ) ;
#183 =( NAMED_UNIT ( * ) PLANE_ANGLE_UNIT ( ) SI_UNIT ( $, .RADIAN. ) );
#184 = CARTESIAN_POINT ( 'NONE',  ( -9.207863503100804757E-17, 4.500000000000005329, 0.000000000000000000 ) ) ;
#185 = CARTESIAN_POINT ( 'NONE',  ( 3.499895010714262789, 0.2615395899050729778, 6.000034996426078848 ) ) ;
#186 =( NAMED_UNIT ( * ) SI_UNIT ( $, .STERADIAN. ) SOLID_ANGLE_UNIT ( ) );
#187 = STYLED_ITEM ( 'NONE', ( #206 ), #173 ) ;
#188 = CARTESIAN_POINT ( 'NONE',  ( 6.509186423930064080, 1.746306335040984870, 5.741211322261797534 ) ) ;
#189 = CARTESIAN_POINT ( 'NONE',  ( 7.295746753613325808, -0.8901964707900200668, 5.934847296002590866 ) ) ;
#190 = CARTESIAN_POINT ( 'NONE',  ( 3.993647623109752409, -1.322060469484170886, 5.853300469267279205 ) ) ;
#191 = EDGE_CURVE ( 'NONE', #179, #179, #26, .T. ) ;
#192 = AXIS2_PLACEMENT_3D ( 'NONE', #122, #314, #239 ) ;
#193 = CARTESIAN_POINT ( 'NONE',  ( 5.234585679963925209, 1.986628532218333909, 5.661629695159657416 ) ) ;
#194 = EDGE_LOOP ( 'NONE', ( #171 ) ) ;
#195 = CARTESIAN_POINT ( 'NONE',  ( 6.509186397556166348, 1.746209203716011515, -5.741237610664247981 ) ) ;
#196 = CARTESIAN_POINT ( 'NONE',  ( 4.977888273212714765, -1.935080626499934509, -5.679454788893231409 ) ) ;
#197 = VERTEX_POINT ( 'NONE', #285 ) ;
#198 = ORIENTED_EDGE ( 'NONE', *, *, #191, .F. ) ;
#199 = CARTESIAN_POINT ( 'NONE',  ( 5.763299380756327750, 1.986972716985101917, -5.661509474216045668 ) ) ;
#200 = ORIENTED_EDGE ( 'NONE', *, *, #267, .T. ) ;
#201 = DIRECTION ( 'NONE',  ( -1.000000000000000000, -0.000000000000000000, -0.000000000000000000 ) ) ;
#202 = CARTESIAN_POINT ( 'NONE',  ( 7.396479301864746780, 0.6484788379136059433, 5.966099132590461984 ) ) ;
#203 = SURFACE_STYLE_USAGE ( .BOTH. , #137 ) ;
#204 = CONICAL_SURFACE ( 'NONE', #65, 7.000000000000006217, 0.7853981633974466137 ) ;
#205 = MANIFOLD_SOLID_BREP ( 'Cut-Extrude1', #322 ) ;
#206 = PRESENTATION_STYLE_ASSIGNMENT (( #108 ) ) ;
#207 = CARTESIAN_POINT ( 'NONE',  ( 35.00000000000000000, 0.000000000000000000, 0.000000000000000000 ) ) ;
#208 = CYLINDRICAL_SURFACE ( 'NONE', #273, 2.000000000000000000 ) ;
#209 = APPLICATION_CONTEXT ( 'automotive_design' ) ;
#210 = CARTESIAN_POINT ( 'NONE',  ( 35.00000000000000000, 0.000000000000000000, 6.000000000000001776 ) ) ;
#211 =( NAMED_UNIT ( * ) SI_UNIT ( $, .STERADIAN. ) SOLID_ANGLE_UNIT ( ) );
#212 = CARTESIAN_POINT ( 'NONE',  ( 6.509186397556166348, -1.746209203716011515, 5.741237610664247981 ) ) ;
#213 = PRODUCT_DEFINITION ( 'UNKNOWN', '', #101, #130 ) ;
#214 = CARTESIAN_POINT ( 'NONE',  ( 35.00000000000000000, 8.500000000000003553, 0.000000000000000000 ) ) ;
#215 = EDGE_LOOP ( 'NONE', ( #96 ) ) ;
#216 = CARTESIAN_POINT ( 'NONE',  ( 7.500000000000007994, -0.1331554747843276820, 6.000000000000001776 ) ) ;
#217 = CARTESIAN_POINT ( 'NONE',  ( 3.500052735620204469, -0.1319722357661348433, 5.999982421461185211 ) ) ;
#218 = EDGE_LOOP ( 'NONE', ( #3 ) ) ;
#219 = CARTESIAN_POINT ( 'NONE',  ( 4.177705992343601515, 1.506147378463205566, -5.808656500676011802 ) ) ;
#220 = CARTESIAN_POINT ( 'NONE',  ( 4.488404242454719473, -1.745271979882817126, -5.741544207925434407 ) ) ;
#221 = ORIENTED_EDGE ( 'NONE', *, *, #313, .T. ) ;
#222 = CARTESIAN_POINT ( 'NONE',  ( 7.295746753613325808, 0.8901964707900200668, -5.934847296002590866 ) ) ;
#223 = ORIENTED_EDGE ( 'NONE', *, *, #298, .T. ) ;
#224 = CARTESIAN_POINT ( 'NONE',  ( 3.993275932419206420, -1.321681097398636373, -5.853391493940652168 ) ) ;
#225 = UNCERTAINTY_MEASURE_WITH_UNIT (LENGTH_MEASURE( 1.000000000000000082E-05 ), #39, 'distance_accuracy_value', 'NONE');
#226 = CARTESIAN_POINT ( 'NONE',  ( 7.396509808497585325, 0.6483877744006693034, -5.966108905935596951 ) ) ;
#227 = B_SPLINE_CURVE_WITH_KNOTS ( 'NONE', 3,
 ( #70, #216, #294, #293, #318, #189, #67, #115, #142, #295, #212, #94, #241, #275, #163, #68, #22, #139, #123, #240, #243, #315, #17, #190, #92, #46, #272, #16, #90, #141, #217, #185, #49, #320, #21, #162, #66, #95, #119, #319, #116, #193, #166, #71, #276, #161, #269, #188, #270, #279, #99, #300, #247, #202, #172, #299, #176, #5 ),
 .UNSPECIFIED., .T., .F.,
 ( 4, 2, 2, 2, 2, 2, 2, 2, 2, 2, 2, 2, 2, 2, 2, 2, 2, 2, 2, 2, 2, 2, 2, 2, 2, 2, 2, 2, 4 ),
 ( 0.000000000000000000, 0.0003935945383190280118, 0.0007871890766380560235, 0.001180783614957084090, 0.001574378153276112047, 0.002361567229914170781, 0.002755161768233198739, 0.003148756306552227130, 0.003542350844871255088, 0.003935945383190283045, 0.004329539921509311003, 0.004723134459828338960, 0.005116728998147366918, 0.005510323536466394875, 0.005903918074785422833, 0.006297512613104450790, 0.007084701689742506706, 0.007478296228061534663, 0.007871890766380562621, 0.008659079843018618536, 0.009052674381337647361, 0.009446268919656677920, 0.009839863457975706745, 0.01023345799629473730, 0.01102064707293279495, 0.01141424161125182551, 0.01180783614957085781, 0.01220143068788988663, 0.01259502522620891893 ),
 .UNSPECIFIED. ) ;
#228 = DIRECTION ( 'NONE',  ( 1.000000000000000000, 0.000000000000000000, 0.000000000000000000 ) ) ;
#229 = CARTESIAN_POINT ( 'NONE',  ( 35.00000000000000000, 0.000000000000000000, 8.500000000000003553 ) ) ;
#230 = CARTESIAN_POINT ( 'NONE',  ( 5.631644983969305684, -2.000010835952009458, -5.656850418404820502 ) ) ;
#231 = AXIS2_PLACEMENT_3D ( 'NONE', #292, #297, #316 ) ;
#232 = CARTESIAN_POINT ( 'NONE',  ( 7.500000000000009770, -0.1331554747843287090, -6.000000000000003553 ) ) ;
#233 = VERTEX_POINT ( 'NONE', #10 ) ;
#234 = CARTESIAN_POINT ( 'NONE',  ( 7.500000000000008882, -5.421010862427522170E-17, -6.000000000000002665 ) ) ;
#235 = CARTESIAN_POINT ( 'NONE',  ( 38.00000000000000711, 0.000000000000000000, 0.000000000000000000 ) ) ;
#236 = AXIS2_PLACEMENT_3D ( 'NONE', #18, #121, #246 ) ;
#237 = FACE_OUTER_BOUND ( 'NONE', #100, .T. ) ;
#238 = ADVANCED_FACE ( 'NONE', ( #256, #34 ), #302, .T. ) ;
#239 = DIRECTION ( 'NONE',  ( 0.000000000000000000, 0.000000000000000000, 1.000000000000000000 ) ) ;
#240 = CARTESIAN_POINT ( 'NONE',  ( 4.610463951849481212, -1.796131642253072203, 5.725097237054209032 ) ) ;
#241 = CARTESIAN_POINT ( 'NONE',  ( 6.021889177444241348, -1.935205112750687961, 5.679412934121341294 ) ) ;
#242 = PRESENTATION_LAYER_ASSIGNMENT (  '', '', ( #187 ) ) ;
#243 = CARTESIAN_POINT ( 'NONE',  ( 4.495143702082088133, -1.734099221172235916, 5.744435912051455873 ) ) ;
#244 = DIRECTION ( 'NONE',  ( 0.000000000000000000, 0.000000000000000000, -1.000000000000000000 ) ) ;
#245 = EDGE_LOOP ( 'NONE', ( #143 ) ) ;
#246 = DIRECTION ( 'NONE',  ( 1.000000000000000000, 0.000000000000000000, 0.000000000000000000 ) ) ;
#247 = CARTESIAN_POINT ( 'NONE',  ( 7.295696557186566622, 0.8902990621872464150, 5.934832031573172628 ) ) ;
#248 = CARTESIAN_POINT ( 'NONE',  ( 4.270303529868326287, -1.598774514288298532, -5.786194921595080309 ) ) ;
#249 = EDGE_LOOP ( 'NONE', ( #280 ) ) ;
#250 = ADVANCED_FACE ( 'NONE', ( #153, #61 ), #208, .F. ) ;
#251 = CARTESIAN_POINT ( 'NONE',  ( 4.978963561364603940, 1.935390990121356847, -5.679348875832658905 ) ) ;
#252 = EDGE_LOOP ( 'NONE', ( #28 ) ) ;
#253 = CARTESIAN_POINT ( 'NONE',  ( 3.703424879200846842, -0.8884838824646796862, -5.935099550986777217 ) ) ;
#254 = DIRECTION ( 'NONE',  ( 0.000000000000000000, 0.000000000000000000, 1.000000000000000000 ) ) ;
#255 = CIRCLE ( 'NONE', #9, 6.000000000000001776 ) ;
#256 = FACE_BOUND ( 'NONE', #23, .T. ) ;
#257 = PRODUCT ( '76.04.01.0006', '76.04.01.0006', '', ( #83 ) ) ;
#258 = CARTESIAN_POINT ( 'NONE',  ( 1.499999999999999556, 0.000000000000000000, 0.000000000000000000 ) ) ;
#259 = CARTESIAN_POINT ( 'NONE',  ( 5.368025973940299345, -1.999989150514403624, -5.656858085364785182 ) ) ;
#260 = UNCERTAINTY_MEASURE_WITH_UNIT (LENGTH_MEASURE( 1.000000000000000082E-05 ), #144, 'distance_accuracy_value', 'NONE');
#261 = DIRECTION ( 'NONE',  ( 1.000000000000000000, 0.000000000000000000, 0.000000000000000000 ) ) ;
#262 = AXIS2_PLACEMENT_3D ( 'NONE', #135, #43, #287 ) ;
#263 = FILL_AREA_STYLE_COLOUR ( '', #44 ) ;
#264 = APPLICATION_PROTOCOL_DEFINITION ( 'draft international standard', 'automotive_design', 1998, #209 ) ;
#265 = CARTESIAN_POINT ( 'NONE',  ( 6.020644071227415850, -1.935535540705378921, -5.679299863499476686 ) ) ;
#266 = DIRECTION ( 'NONE',  ( 0.000000000000000000, 0.000000000000000000, 1.000000000000000000 ) ) ;
#267 = EDGE_CURVE ( 'NONE', #88, #88, #309, .T. ) ;
#268 = PRESENTATION_LAYER_ASSIGNMENT (  '', '', ( #117 ) ) ;
#269 = CARTESIAN_POINT ( 'NONE',  ( 6.147937164283445277, 1.896625475588840537, 5.692590370035004455 ) ) ;
#270 = CARTESIAN_POINT ( 'NONE',  ( 6.730440375147365373, 1.597885448045709200, 5.786391917076067593 ) ) ;
#271 = ADVANCED_FACE ( 'NONE', ( #286, #38 ), #204, .T. ) ;
#272 = CARTESIAN_POINT ( 'NONE',  ( 3.703735421006609574, -0.8890685857546740678, 5.935005968993722014 ) ) ;
#273 = AXIS2_PLACEMENT_3D ( 'NONE', #311, #131, #228 ) ;
#274 = SHAPE_DEFINITION_REPRESENTATION ( #178, #173 ) ;
#275 = CARTESIAN_POINT ( 'NONE',  ( 5.763299380756327750, -1.986972716985101917, 5.661509474216045668 ) ) ;
#276 = CARTESIAN_POINT ( 'NONE',  ( 5.762164732749054608, 1.987117945956035747, 5.661458031085127907 ) ) ;
#277 = CARTESIAN_POINT ( 'NONE',  ( 3.565204938273411006, 0.5234513961886764211, -5.978530582059971898 ) ) ;
#278 = EDGE_LOOP ( 'NONE', ( #223 ) ) ;
#279 = CARTESIAN_POINT ( 'NONE',  ( 7.005514622960268056, 1.322962990986547016, 5.853089889558318326 ) ) ;
#280 = ORIENTED_EDGE ( 'NONE', *, *, #291, .F. ) ;
#281 = CARTESIAN_POINT ( 'NONE',  ( 3.603486032481512780, 0.6482624151756810615, -5.966112188287907792 ) ) ;
#282 = CARTESIAN_POINT ( 'NONE',  ( 0.000000000000000000, 0.000000000000000000, 0.000000000000000000 ) ) ;
#283 = FILL_AREA_STYLE ('',( #263 ) ) ;
#284 = AXIS2_PLACEMENT_3D ( 'NONE', #282, #306, #125 ) ;
#285 = CARTESIAN_POINT ( 'NONE',  ( 7.500000000000007105, 0.000000000000000000, 6.000000000000000888 ) ) ;
#286 = FACE_OUTER_BOUND ( 'NONE', #215, .T. ) ;
#287 = DIRECTION ( 'NONE',  ( 0.000000000000000000, 0.000000000000000000, 1.000000000000000000 ) ) ;
#288 = FILL_AREA_STYLE ('',( #37 ) ) ;
#289 = CARTESIAN_POINT ( 'NONE',  ( 7.396479301864746780, -0.6484788379136059433, -5.966099132590461984 ) ) ;
#290 = DIRECTION ( 'NONE',  ( 0.000000000000000000, 0.000000000000000000, -1.000000000000000000 ) ) ;
#291 = EDGE_CURVE ( 'NONE', #59, #59, #255, .T. ) ;
#292 = CARTESIAN_POINT ( 'NONE',  ( 38.00000000000000711, 0.000000000000000000, 0.000000000000000000 ) ) ;
#293 = CARTESIAN_POINT ( 'NONE',  ( 7.435431273475680669, -0.5208358549357979816, 5.978737698794990507 ) ) ;
#294 = CARTESIAN_POINT ( 'NONE',  ( 7.486836486607476360, -0.2639033490118382064, 5.995575825653401303 ) ) ;
#295 = CARTESIAN_POINT ( 'NONE',  ( 6.730594376309759319, -1.597705364247402171, 5.786432247724127009 ) ) ;
#296 = AXIS2_PLACEMENT_3D ( 'NONE', #2, #201, #254 ) ;
#297 = DIRECTION ( 'NONE',  ( -1.000000000000000000, 0.000000000000000000, -0.000000000000000000 ) ) ;
#298 = EDGE_CURVE ( 'NONE', #154, #154, #165, .T. ) ;
#299 = CARTESIAN_POINT ( 'NONE',  ( 7.486826752465751689, 0.2639758135586129928, 5.995572583537809308 ) ) ;
#300 = CARTESIAN_POINT ( 'NONE',  ( 7.234231897006853096, 1.004668640024029225, 5.916311260470016542 ) ) ;
#301 = CIRCLE ( 'NONE', #156, 6.000000000000000000 ) ;
#302 = CONICAL_SURFACE ( 'NONE', #160, 6.000000000000000000, 0.7853981633974465026 ) ;
#303 = FACE_OUTER_BOUND ( 'NONE', #126, .T. ) ;
#304 = EDGE_CURVE ( 'NONE', #233, #233, #301, .T. ) ;
#305 = FACE_BOUND ( 'NONE', #76, .T. ) ;
#306 = DIRECTION ( 'NONE',  ( -1.000000000000000000, -0.000000000000000000, -0.000000000000000000 ) ) ;
#307 = APPLICATION_PROTOCOL_DEFINITION ( 'draft international standard', 'automotive_design', 1998, #33 ) ;
#308 =( NAMED_UNIT ( * ) PLANE_ANGLE_UNIT ( ) SI_UNIT ( $, .RADIAN. ) );
#309 = CIRCLE ( 'NONE', #157, 8.500000000000001776 ) ;
#310 = CARTESIAN_POINT ( 'NONE',  ( 5.234585679963925209, -1.986628532218333909, -5.661629695159657416 ) ) ;
#311 = CARTESIAN_POINT ( 'NONE',  ( 5.500000000000006217, -2.407412430484044816E-32, -8.500000000000003553 ) ) ;
#312 = CIRCLE ( 'NONE', #20, 7.000000000000006217 ) ;
#313 = EDGE_CURVE ( 'NONE', #158, #158, #312, .T. ) ;
#314 = DIRECTION ( 'NONE',  ( -1.000000000000000000, -0.000000000000000000, -0.000000000000000000 ) ) ;
#315 = CARTESIAN_POINT ( 'NONE',  ( 4.279502809926702511, -1.589724157631955626, 5.786054023181769423 ) ) ;
#316 = DIRECTION ( 'NONE',  ( -0.000000000000000000, 0.000000000000000000, 1.000000000000000000 ) ) ;
#317 = MECHANICAL_DESIGN_GEOMETRIC_PRESENTATION_REPRESENTATION (  '', ( #187 ), #87 ) ;
#318 = CARTESIAN_POINT ( 'NONE',  ( 7.396509808497585325, -0.6483877744006693034, 5.966108905935596951 ) ) ;
#319 = CARTESIAN_POINT ( 'NONE',  ( 4.852958642862336802, 1.897014113617890629, 5.692465502448547099 ) ) ;
#320 = CARTESIAN_POINT ( 'NONE',  ( 3.703424879200846842, 0.8884838824646796862, 5.935099550986777217 ) ) ;
#321 = EDGE_LOOP ( 'NONE', ( #174 ) ) ;
#322 = CLOSED_SHELL ( 'NONE', ( #41, #271, #103, #35, #107, #238, #182, #250 ) ) ;
ENDSEC;
END-ISO-10303-21;
