ISO-10303-21;
HEADER;
FILE_DESCRIPTION (( 'STEP AP214' ),
    '1' );
FILE_NAME ('76.04.01.0005.step',
    '2021-04-02T17:59:42',
    ( '' ),
    ( '' ),
    'SwSTEP 2.0',
    'SolidWorks 2021',
    '' );
FILE_SCHEMA (( 'AUTOMOTIVE_DESIGN' ));
ENDSEC;

DATA;
#1 = EDGE_LOOP ( 'NONE', ( #296 ) ) ;
#2 =( NAMED_UNIT ( * ) SI_UNIT ( $, .STERADIAN. ) SOLID_ANGLE_UNIT ( ) );
#3 = CARTESIAN_POINT ( 'NONE',  ( 4.710508670967840317, -1.589594437640316826, 4.740639677278789321 ) ) ;
#4 = AXIS2_PLACEMENT_3D ( 'NONE', #151, #20, #195 ) ;
#5 = FACE_OUTER_BOUND ( 'NONE', #152, .T. ) ;
#6 = CARTESIAN_POINT ( 'NONE',  ( 5.887500759911080905, -0.8035730104243322680, 4.935791073625398262 ) ) ;
#7 = CARTESIAN_POINT ( 'NONE',  ( 30.00000000000000000, 0.000000000000000000, 7.000000000000001776 ) ) ;
#8 = CARTESIAN_POINT ( 'NONE',  ( 6.048398716803445652, -0.4164570910027821093, 4.983689229185110925 ) ) ;
#9 = AXIS2_PLACEMENT_3D ( 'NONE', #35, #189, #37 ) ;
#10 = DIRECTION ( 'NONE',  ( -1.000000000000000000, -0.000000000000000000, -0.000000000000000000 ) ) ;
#11 = CARTESIAN_POINT ( 'NONE',  ( 4.395967551705655119, 1.600071837028311128, -4.737063449243500202 ) ) ;
#12 = CARTESIAN_POINT ( 'NONE',  ( 5.936709577323874498, 0.7119314275663003455, -4.950015642177405084 ) ) ;
#13 = CIRCLE ( 'NONE', #77, 4.999999999999999112 ) ;
#14 = SHAPE_DEFINITION_REPRESENTATION ( #259, #261 ) ;
#15 = CARTESIAN_POINT ( 'NONE',  ( 31.00000000000000000, 0.000000000000000000, 0.000000000000000000 ) ) ;
#16 = CARTESIAN_POINT ( 'NONE',  ( 5.307054745911875315, 1.397217800205094562, 4.801543308040442604 ) ) ;
#17 = DIRECTION ( 'NONE',  ( -1.000000000000000000, -0.000000000000000000, -0.000000000000000000 ) ) ;
#18 = DIRECTION ( 'NONE',  ( -0.000000000000000000, 0.000000000000000000, 1.000000000000000000 ) ) ;
#19 = DIRECTION ( 'NONE',  ( 0.000000000000000000, 0.000000000000000000, 1.000000000000000000 ) ) ;
#20 = DIRECTION ( 'NONE',  ( -1.000000000000000000, -0.000000000000000000, -0.000000000000000000 ) ) ;
#21 = FACE_BOUND ( 'NONE', #291, .T. ) ;
#22 = EDGE_LOOP ( 'NONE', ( #41 ) ) ;
#23 = PRODUCT_RELATED_PRODUCT_CATEGORY ( 'part', '', ( #215 ) ) ;
#24 = FILL_AREA_STYLE ('',( #131 ) ) ;
#25 = EDGE_LOOP ( 'NONE', ( #316 ) ) ;
#26 = B_SPLINE_CURVE_WITH_KNOTS ( 'NONE', 3,
 ( #82, #59, #60, #238, #63, #12, #191, #117, #193, #85, #112, #263, #36, #217, #210, #11, #188, #113, #145, #307, #142, #144, #310, #240, #116, #216, #312, #141, #58, #170, #88, #305, #288, #284, #266, #257, #212, #221, #295, #40, #65, #270, #148, #226, #43, #68, #101, #150, #94, #194, #198, #243, #153, #248, #70, #245 ),
 .UNSPECIFIED., .T., .F.,
 ( 4, 2, 2, 2, 2, 2, 2, 2, 2, 2, 2, 2, 2, 2, 2, 2, 2, 2, 2, 2, 2, 2, 2, 2, 2, 2, 2, 4 ),
 ( 0.000000000000000000, 0.0003146881725221890055, 0.0006293763450443780110, 0.0009440645175665671792, 0.001258752690088756456, 0.001888129035133135659, 0.002202817207655325370, 0.002517505380177515080, 0.002832193552699704357, 0.003146881725221894067, 0.003776258070266273054, 0.004090946242788461897, 0.004405634415310650739, 0.004720322587832839582, 0.005035010760355028425, 0.005664387105399406978, 0.005979075277921595821, 0.006293763450443784664, 0.006923139795488161483, 0.007237827968010349458, 0.007552516140532538301, 0.007867204313054725409, 0.008181892485576913385, 0.008811268830621291070, 0.009125957003143479046, 0.009440645175665668756, 0.009755333348187856732, 0.01007002152071004644 ),
 .UNSPECIFIED. ) ;
#27 = CARTESIAN_POINT ( 'NONE',  ( 31.00000000000000000, 0.000000000000000000, 6.000000000000003553 ) ) ;
#28 = CARTESIAN_POINT ( 'NONE',  ( 4.082454086211050104, 1.548098700590048837, 4.754351811178198162 ) ) ;
#29 = MECHANICAL_DESIGN_GEOMETRIC_PRESENTATION_REPRESENTATION (  '', ( #42 ), #213 ) ;
#30 = CARTESIAN_POINT ( 'NONE',  ( 4.395967551705655119, -1.600071837028311128, 4.737063449243500202 ) ) ;
#31 = CARTESIAN_POINT ( 'NONE',  ( 4.287683528830541491, 1.589300441376832795, 4.740737794717341025 ) ) ;
#32 = DIRECTION ( 'NONE',  ( 1.000000000000000000, 0.000000000000000000, 0.000000000000000000 ) ) ;
#33 = CARTESIAN_POINT ( 'NONE',  ( 6.100000000000000533, -8.809142651444723526E-17, 5.000000000000000888 ) ) ;
#34 = CARTESIAN_POINT ( 'NONE',  ( 2.982709558483264800, -0.5183849273425720217, 4.974002887516446592 ) ) ;
#35 = CARTESIAN_POINT ( 'NONE',  ( 1.499999999999999556, 0.000000000000000000, 0.000000000000000000 ) ) ;
#36 = CARTESIAN_POINT ( 'NONE',  ( 4.917352774793741332, 1.548205747987535963, -4.754317405039898858 ) ) ;
#37 = DIRECTION ( 'NONE',  ( 0.000000000000000000, 0.000000000000000000, -1.000000000000000000 ) ) ;
#38 = FACE_BOUND ( 'NONE', #293, .T. ) ;
#39 = CARTESIAN_POINT ( 'NONE',  ( 5.771486265951716099, 0.9768205802846798846, 4.904443078797954492 ) ) ;
#40 = CARTESIAN_POINT ( 'NONE',  ( 4.287683528830541491, -1.589300441376832795, -4.740737794717341025 ) ) ;
#41 = ORIENTED_EDGE ( 'NONE', *, *, #159, .T. ) ;
#42 = STYLED_ITEM ( 'NONE', ( #200 ), #86 ) ;
#43 = CARTESIAN_POINT ( 'NONE',  ( 5.018004077861285772, -1.517419029584870849, -4.764367578042565832 ) ) ;
#44 = FACE_OUTER_BOUND ( 'NONE', #64, .T. ) ;
#45 = CARTESIAN_POINT ( 'NONE',  ( 28.99999999999999645, 7.000000000000001776, 0.000000000000000000 ) ) ;
#46 = EDGE_CURVE ( 'NONE', #161, #161, #192, .T. ) ;
#47 = EDGE_LOOP ( 'NONE', ( #275 ) ) ;
#48 = DIRECTION ( 'NONE',  ( 0.000000000000000000, 0.000000000000000000, -1.000000000000000000 ) ) ;
#49 = CARTESIAN_POINT ( 'NONE',  ( 2.942263883717048945, 0.4208986191467862237, 4.986048383654671845 ) ) ;
#50 = VERTEX_POINT ( 'NONE', #158 ) ;
#51 = CARTESIAN_POINT ( 'NONE',  ( 3.515982901837106489, -1.278739985921553579, 4.836086421445450867 ) ) ;
#52 = AXIS2_PLACEMENT_3D ( 'NONE', #90, #276, #273 ) ;
#53 = CARTESIAN_POINT ( 'NONE',  ( 4.606230517863103557, -1.599927408048192223, 4.737112231601239287 ) ) ;
#54 =( LENGTH_UNIT ( ) NAMED_UNIT ( * ) SI_UNIT ( .MILLI., .METRE. ) );
#55 =( NAMED_UNIT ( * ) PLANE_ANGLE_UNIT ( ) SI_UNIT ( $, .RADIAN. ) );
#56 = CARTESIAN_POINT ( 'NONE',  ( 6.099999999999999645, -0.1064568721275318819, 5.000000000000000000 ) ) ;
#57 = CONICAL_SURFACE ( 'NONE', #9, 4.999999999999999112, 0.7853981633974468357 ) ;
#58 = CARTESIAN_POINT ( 'NONE',  ( 2.900043435418092397, 0.1055410596049274619, -4.999986100667269895 ) ) ;
#59 = CARTESIAN_POINT ( 'NONE',  ( 6.099999999999999645, 0.1064568721275318819, -5.000000000000000000 ) ) ;
#60 = CARTESIAN_POINT ( 'NONE',  ( 6.089482303838160249, 0.2110002384605000891, -4.996606222338497716 ) ) ;
#61 = FACE_BOUND ( 'NONE', #1, .T. ) ;
#62 = CLOSED_SHELL ( 'NONE', ( #258, #219, #279, #308, #235, #197, #106, #80 ) ) ;
#63 = CARTESIAN_POINT ( 'NONE',  ( 6.017292160468755036, 0.5184643352351209211, -4.974002005271689342 ) ) ;
#64 = EDGE_LOOP ( 'NONE', ( #175 ) ) ;
#65 = CARTESIAN_POINT ( 'NONE',  ( 4.394271170286605965, -1.599981910608651026, -4.737093822808320809 ) ) ;
#66 = FACE_OUTER_BOUND ( 'NONE', #177, .T. ) ;
#67 = CIRCLE ( 'NONE', #199, 5.000000000000001776 ) ;
#68 = CARTESIAN_POINT ( 'NONE',  ( 5.307054745911875315, -1.397217800205094562, -4.801543308040442604 ) ) ;
#69 = SURFACE_STYLE_FILL_AREA ( #173 ) ;
#70 = CARTESIAN_POINT ( 'NONE',  ( 6.100000000000001421, -0.1064568721275317015, -5.000000000000000888 ) ) ;
#71 = EDGE_LOOP ( 'NONE', ( #249 ) ) ;
#72 = FACE_OUTER_BOUND ( 'NONE', #47, .T. ) ;
#73 = EDGE_LOOP ( 'NONE', ( #120 ) ) ;
#74 = CARTESIAN_POINT ( 'NONE',  ( -9.207863503100804757E-17, 3.500000000000003997, 0.000000000000000000 ) ) ;
#75 = PLANE ( 'NONE',  #317 ) ;
#76 = CARTESIAN_POINT ( 'NONE',  ( 3.982475004905551064, 1.517656904279730989, 4.764295941592002315 ) ) ;
#77 = AXIS2_PLACEMENT_3D ( 'NONE', #190, #286, #166 ) ;
#78 = DIRECTION ( 'NONE',  ( -1.000000000000000000, -0.000000000000000000, -0.000000000000000000 ) ) ;
#79 =( NAMED_UNIT ( * ) SI_UNIT ( $, .STERADIAN. ) SOLID_ANGLE_UNIT ( ) );
#80 = ADVANCED_FACE ( 'NONE', ( #66, #290 ), #123, .F. ) ;
#81 = CARTESIAN_POINT ( 'NONE',  ( 2.952116927792507450, -0.4185597827194367793, 4.983528150331256512 ) ) ;
#82 = CARTESIAN_POINT ( 'NONE',  ( 6.100000000000000533, 8.809142651444723526E-17, -5.000000000000000888 ) ) ;
#83 = CARTESIAN_POINT ( 'NONE',  ( 5.484218626127617568, 1.278411476494968113, 4.836147196397736714 ) ) ;
#84 = DIRECTION ( 'NONE',  ( 1.000000000000000000, 0.000000000000000000, 0.000000000000000000 ) ) ;
#85 = CARTESIAN_POINT ( 'NONE',  ( 5.484428572657345846, 1.278220547835520415, -4.836193874793403680 ) ) ;
#86 = MANIFOLD_SOLID_BREP ( 'Cut-Extrude1', #62 ) ;
#87 = CARTESIAN_POINT ( 'NONE',  ( 5.936591213280386192, 0.7121540339520981977, 4.949981439084235824 ) ) ;
#88 = CARTESIAN_POINT ( 'NONE',  ( 2.942263883717048945, -0.4208986191467862237, -4.986048383654671845 ) ) ;
#89 =( GEOMETRIC_REPRESENTATION_CONTEXT ( 3 ) GLOBAL_UNCERTAINTY_ASSIGNED_CONTEXT ( ( #92 ) ) GLOBAL_UNIT_ASSIGNED_CONTEXT ( ( #54, #251, #2 ) ) REPRESENTATION_CONTEXT ( 'NONE', 'WORKASPACE' ) );
#90 = CARTESIAN_POINT ( 'NONE',  ( 31.00000000000000000, 0.000000000000000000, 0.000000000000000000 ) ) ;
#91 = ORIENTED_EDGE ( 'NONE', *, *, #272, .F. ) ;
#92 = UNCERTAINTY_MEASURE_WITH_UNIT (LENGTH_MEASURE( 1.000000000000000082E-05 ), #54, 'distance_accuracy_value', 'NONE');
#93 = EDGE_LOOP ( 'NONE', ( #91 ) ) ;
#94 = CARTESIAN_POINT ( 'NONE',  ( 5.771486265951716099, -0.9768205802846798846, -4.904443078797954492 ) ) ;
#95 = SURFACE_STYLE_USAGE ( .BOTH. , #244 ) ;
#96 = EDGE_CURVE ( 'NONE', #211, #211, #67, .T. ) ;
#97 = COLOUR_RGB ( '',0.8274509803921568096, 0.8392156862745098200, 0.8274509803921568096 ) ;
#98 = VERTEX_POINT ( 'NONE', #180 ) ;
#99 = EDGE_LOOP ( 'NONE', ( #129 ) ) ;
#100 = APPLICATION_PROTOCOL_DEFINITION ( 'draft international standard', 'automotive_design', 1998, #267 ) ;
#101 = CARTESIAN_POINT ( 'NONE',  ( 5.484218626127617568, -1.278411476494968113, -4.836147196397736714 ) ) ;
#102 = UNCERTAINTY_MEASURE_WITH_UNIT (LENGTH_MEASURE( 1.000000000000000082E-05 ), #186, 'distance_accuracy_value', 'NONE');
#103 = SURFACE_STYLE_USAGE ( .BOTH. , #277 ) ;
#104 = CARTESIAN_POINT ( 'NONE',  ( 5.936709577323874498, -0.7119314275663003455, 4.950015642177405084 ) ) ;
#105 = PRESENTATION_LAYER_ASSIGNMENT (  '', '', ( #155 ) ) ;
#106 = ADVANCED_FACE ( 'NONE', ( #5 ), #75, .F. ) ;
#107 = VERTEX_POINT ( 'NONE', #300 ) ;
#108 = CARTESIAN_POINT ( 'NONE',  ( 5.704306479626001014, -1.058481340895581102, 4.887256080036163297 ) ) ;
#109 = CARTESIAN_POINT ( 'NONE',  ( 3.516010339754370939, 1.278828149432289507, 4.836073378273226808 ) ) ;
#110 = CIRCLE ( 'NONE', #264, 7.000000000000001776 ) ;
#111 = CARTESIAN_POINT ( 'NONE',  ( 4.289156324175791291, -1.589514670147680553, 4.740665858514914177 ) ) ;
#112 = CARTESIAN_POINT ( 'NONE',  ( 5.307176393628817657, 1.397070075508275000, -4.801584135810098353 ) ) ;
#113 = CARTESIAN_POINT ( 'NONE',  ( 4.083355271313154233, 1.548360136501588658, -4.754266563456073236 ) ) ;
#114 = AXIS2_PLACEMENT_3D ( 'NONE', #178, #174, #18 ) ;
#115 = DIRECTION ( 'NONE',  ( -1.000000000000000000, -0.000000000000000000, -0.000000000000000000 ) ) ;
#116 = CARTESIAN_POINT ( 'NONE',  ( 3.062911089477190707, 0.7111038461901143526, -4.950127167846448906 ) ) ;
#117 = CARTESIAN_POINT ( 'NONE',  ( 5.771380929598380227, 0.9769741417713152520, -4.904414810339023489 ) ) ;
#118 = FACE_BOUND ( 'NONE', #25, .T. ) ;
#119 = DIRECTION ( 'NONE',  ( -1.000000000000000000, -0.000000000000000000, -0.000000000000000000 ) ) ;
#120 = ORIENTED_EDGE ( 'NONE', *, *, #146, .F. ) ;
#121 = APPLICATION_CONTEXT ( 'automotive_design' ) ;
#122 = FACE_OUTER_BOUND ( 'NONE', #99, .T. ) ;
#123 = CYLINDRICAL_SURFACE ( 'NONE', #143, 1.600000000000000755 ) ;
#124 = FACE_OUTER_BOUND ( 'NONE', #246, .T. ) ;
#125 = CIRCLE ( 'NONE', #52, 6.000000000000003553 ) ;
#126 = FACE_BOUND ( 'NONE', #202, .T. ) ;
#127 = ORIENTED_EDGE ( 'NONE', *, *, #231, .T. ) ;
#128 = SURFACE_STYLE_FILL_AREA ( #24 ) ;
#129 = ORIENTED_EDGE ( 'NONE', *, *, #268, .F. ) ;
#130 = PRODUCT_DEFINITION ( 'UNKNOWN', '', #309, #314 ) ;
#131 = FILL_AREA_STYLE_COLOUR ( '', #97 ) ;
#132 = CARTESIAN_POINT ( 'NONE',  ( 4.605180623664971051, 1.600018042433559273, 4.737081618913771663 ) ) ;
#133 = CARTESIAN_POINT ( 'NONE',  ( 3.294863709375627003, -1.057597712406928236, 4.887454760458924241 ) ) ;
#134 = UNCERTAINTY_MEASURE_WITH_UNIT (LENGTH_MEASURE( 1.000000000000000082E-05 ), #301, 'distance_accuracy_value', 'NONE');
#135 = APPLICATION_PROTOCOL_DEFINITION ( 'draft international standard', 'automotive_design', 1998, #121 ) ;
#136 = CARTESIAN_POINT ( 'NONE',  ( 4.394271170286605965, 1.599981910608651026, 4.737093822808320809 ) ) ;
#137 = DIRECTION ( 'NONE',  ( 1.000000000000000000, 0.000000000000000000, 0.000000000000000000 ) ) ;
#138 = CARTESIAN_POINT ( 'NONE',  ( -1.841572700620160951E-16, 0.000000000000000000, 3.500000000000003997 ) ) ;
#139 = AXIS2_PLACEMENT_3D ( 'NONE', #163, #306, #84 ) ;
#140 = CARTESIAN_POINT ( 'NONE',  ( 6.089482303838160249, -0.2110002384605000891, 4.996606222338497716 ) ) ;
#141 = CARTESIAN_POINT ( 'NONE',  ( 2.910554614151318553, 0.2116545826127687324, -4.996593585085063793 ) ) ;
#142 = CARTESIAN_POINT ( 'NONE',  ( 3.515982901837106489, 1.278739985921553579, -4.836086421445450867 ) ) ;
#143 = AXIS2_PLACEMENT_3D ( 'NONE', #171, #220, #269 ) ;
#144 = CARTESIAN_POINT ( 'NONE',  ( 3.294863709375627003, 1.057597712406928236, -4.887454760458924241 ) ) ;
#145 = CARTESIAN_POINT ( 'NONE',  ( 3.983263501142017660, 1.517921279877725960, -4.764211000957057962 ) ) ;
#146 = EDGE_CURVE ( 'NONE', #98, #98, #254, .T. ) ;
#147 = CARTESIAN_POINT ( 'NONE',  ( 30.00000000000000000, 0.000000000000000000, 0.000000000000000000 ) ) ;
#148 = CARTESIAN_POINT ( 'NONE',  ( 4.709534619576107417, -1.589711517697346643, -4.740599893489441996 ) ) ;
#149 = CARTESIAN_POINT ( 'NONE',  ( 28.99999999999999645, 0.000000000000000000, 0.000000000000000000 ) ) ;
#150 = CARTESIAN_POINT ( 'NONE',  ( 5.704302147398458089, -1.058495106074707648, -4.887254036013562342 ) ) ;
#151 = CARTESIAN_POINT ( 'NONE',  ( -1.841572700620160951E-16, 0.000000000000000000, 0.000000000000000000 ) ) ;
#152 = EDGE_LOOP ( 'NONE', ( #225 ) ) ;
#153 = CARTESIAN_POINT ( 'NONE',  ( 6.048322318164369271, -0.4167683636793793611, -4.983665363227496314 ) ) ;
#154 = ORIENTED_EDGE ( 'NONE', *, *, #268, .T. ) ;
#155 = STYLED_ITEM ( 'NONE', ( #205 ), #261 ) ;
#156 = CARTESIAN_POINT ( 'NONE',  ( 3.228699494468174169, 0.9770515933240230266, 4.904395295079966743 ) ) ;
#157 = VERTEX_POINT ( 'NONE', #27 ) ;
#158 = CARTESIAN_POINT ( 'NONE',  ( 28.99999999999999645, 0.000000000000000000, 7.000000000000001776 ) ) ;
#159 = EDGE_CURVE ( 'NONE', #107, #107, #13, .T. ) ;
#160 = CARTESIAN_POINT ( 'NONE',  ( 3.113206633933879974, -0.8047538401928571172, 4.935593457058645050 ) ) ;
#161 = VERTEX_POINT ( 'NONE', #138 ) ;
#162 = AXIS2_PLACEMENT_3D ( 'NONE', #147, #119, #242 ) ;
#163 = CARTESIAN_POINT ( 'NONE',  ( 0.000000000000000000, 0.000000000000000000, 0.000000000000000000 ) ) ;
#164 = PRESENTATION_LAYER_ASSIGNMENT (  '', '', ( #42 ) ) ;
#165 = CARTESIAN_POINT ( 'NONE',  ( 6.017132676048076334, 0.5189085906167438811, 4.973953507013995967 ) ) ;
#166 = DIRECTION ( 'NONE',  ( 0.000000000000000000, 0.000000000000000000, 1.000000000000000000 ) ) ;
#167 = CARTESIAN_POINT ( 'NONE',  ( 5.887430960420487303, 0.8036735037552400485, 4.935772407495974790 ) ) ;
#168 = EDGE_CURVE ( 'NONE', #50, #50, #110, .T. ) ;
#169 = DIRECTION ( 'NONE',  ( 0.000000000000000000, 0.000000000000000000, 1.000000000000000000 ) ) ;
#170 = CARTESIAN_POINT ( 'NONE',  ( 2.899913538215947106, -0.2091004783840758052, -5.000027667768780049 ) ) ;
#171 = CARTESIAN_POINT ( 'NONE',  ( 4.499999999999999112, 4.814824860968089633E-32, -7.000000000000001776 ) ) ;
#172 = MECHANICAL_DESIGN_GEOMETRIC_PRESENTATION_REPRESENTATION (  '', ( #155 ), #256 ) ;
#173 = FILL_AREA_STYLE ('',( #222 ) ) ;
#174 = DIRECTION ( 'NONE',  ( -1.000000000000000000, 0.000000000000000000, -0.000000000000000000 ) ) ;
#175 = ORIENTED_EDGE ( 'NONE', *, *, #272, .T. ) ;
#176 = PLANE ( 'NONE',  #218 ) ;
#177 = EDGE_LOOP ( 'NONE', ( #271 ) ) ;
#178 = CARTESIAN_POINT ( 'NONE',  ( 31.00000000000000000, 0.000000000000000000, 0.000000000000000000 ) ) ;
#179 = AXIS2_PLACEMENT_3D ( 'NONE', #201, #17, #294 ) ;
#180 = CARTESIAN_POINT ( 'NONE',  ( 6.099999999999999645, 0.000000000000000000, 5.000000000000000888 ) ) ;
#181 = CARTESIAN_POINT ( 'NONE',  ( 3.691374501153253274, -1.396614222770661717, 4.801732458908710477 ) ) ;
#182 = DIRECTION ( 'NONE',  ( 0.000000000000000000, 0.000000000000000000, 1.000000000000000000 ) ) ;
#183 = CARTESIAN_POINT ( 'NONE',  ( 4.917352774793741332, -1.548205747987535963, 4.754317405039898858 ) ) ;
#184 = AXIS2_PLACEMENT_3D ( 'NONE', #318, #313, #19 ) ;
#185 = CARTESIAN_POINT ( 'NONE',  ( 6.017292160468755036, -0.5184643352351209211, 4.974002005271689342 ) ) ;
#186 =( LENGTH_UNIT ( ) NAMED_UNIT ( * ) SI_UNIT ( .MILLI., .METRE. ) );
#187 = CARTESIAN_POINT ( 'NONE',  ( 2.899913538215947106, 0.2091004783840758052, 5.000027667768780049 ) ) ;
#188 = CARTESIAN_POINT ( 'NONE',  ( 4.289156324175791291, 1.589514670147680553, -4.740665858514914177 ) ) ;
#189 = DIRECTION ( 'NONE',  ( 1.000000000000000000, 0.000000000000000000, 0.000000000000000000 ) ) ;
#190 = CARTESIAN_POINT ( 'NONE',  ( 1.499999999999999556, 0.000000000000000000, 0.000000000000000000 ) ) ;
#191 = CARTESIAN_POINT ( 'NONE',  ( 5.887500759911080905, 0.8035730104243322680, -4.935791073625398262 ) ) ;
#192 = CIRCLE ( 'NONE', #4, 3.500000000000003997 ) ;
#193 = CARTESIAN_POINT ( 'NONE',  ( 5.704306479626001014, 1.058481340895581102, -4.887256080036163297 ) ) ;
#194 = CARTESIAN_POINT ( 'NONE',  ( 5.887430960420487303, -0.8036735037552400485, -4.935772407495974790 ) ) ;
#195 = DIRECTION ( 'NONE',  ( 0.000000000000000000, 0.000000000000000000, 1.000000000000000000 ) ) ;
#196 = ORIENTED_EDGE ( 'NONE', *, *, #159, .F. ) ;
#197 = ADVANCED_FACE ( 'NONE', ( #61, #311 ), #57, .T. ) ;
#198 = CARTESIAN_POINT ( 'NONE',  ( 5.936591213280386192, -0.7121540339520981977, -4.949981439084235824 ) ) ;
#199 = AXIS2_PLACEMENT_3D ( 'NONE', #149, #78, #182 ) ;
#200 = PRESENTATION_STYLE_ASSIGNMENT (( #95 ) ) ;
#201 = CARTESIAN_POINT ( 'NONE',  ( 0.000000000000000000, 0.000000000000000000, 0.000000000000000000 ) ) ;
#202 = EDGE_LOOP ( 'NONE', ( #127 ) ) ;
#203 = CARTESIAN_POINT ( 'NONE',  ( 28.99999999999999645, 0.000000000000000000, 5.000000000000001776 ) ) ;
#204 = ORIENTED_EDGE ( 'NONE', *, *, #168, .F. ) ;
#205 = PRESENTATION_STYLE_ASSIGNMENT (( #103 ) ) ;
#206 = CARTESIAN_POINT ( 'NONE',  ( 4.083355271313154233, -1.548360136501588658, 4.754266563456073236 ) ) ;
#207 = CARTESIAN_POINT ( 'NONE',  ( 2.910554614151318553, -0.2116545826127687324, 4.996593585085063793 ) ) ;
#208 = CARTESIAN_POINT ( 'NONE',  ( 3.062579770376250288, 0.7104558025390953491, 4.950223336938929464 ) ) ;
#209 = CARTESIAN_POINT ( 'NONE',  ( 5.307176393628817657, -1.397070075508275000, 4.801584135810098353 ) ) ;
#210 = CARTESIAN_POINT ( 'NONE',  ( 4.606230517863103557, 1.599927408048192223, -4.737112231601239287 ) ) ;
#211 = VERTEX_POINT ( 'NONE', #203 ) ;
#212 = CARTESIAN_POINT ( 'NONE',  ( 3.690483084190255170, -1.396116313793227759, -4.801880093366744262 ) ) ;
#213 =( GEOMETRIC_REPRESENTATION_CONTEXT ( 3 ) GLOBAL_UNCERTAINTY_ASSIGNED_CONTEXT ( ( #134 ) ) GLOBAL_UNIT_ASSIGNED_CONTEXT ( ( #301, #55, #299 ) ) REPRESENTATION_CONTEXT ( 'NONE', 'WORKASPACE' ) );
#214 = CARTESIAN_POINT ( 'NONE',  ( 6.089475706034878755, 0.2111038839405535161, 4.996603993892516193 ) ) ;
#215 = PRODUCT ( '76.04.01.0005', '76.04.01.0005', '', ( #253 ) ) ;
#216 = CARTESIAN_POINT ( 'NONE',  ( 2.982709558483264800, 0.5183849273425720217, -4.974002887516446592 ) ) ;
#217 = CARTESIAN_POINT ( 'NONE',  ( 4.710508670967840317, 1.589594437640316826, -4.740639677278789321 ) ) ;
#218 = AXIS2_PLACEMENT_3D ( 'NONE', #45, #32, #48 ) ;
#219 = ADVANCED_FACE ( 'NONE', ( #287, #38 ), #230, .T. ) ;
#220 = DIRECTION ( 'NONE',  ( -0.000000000000000000, -0.000000000000000000, 1.000000000000000000 ) ) ;
#221 = CARTESIAN_POINT ( 'NONE',  ( 3.982475004905551064, -1.517656904279730989, -4.764295941592002315 ) ) ;
#222 = FILL_AREA_STYLE_COLOUR ( '', #224 ) ;
#223 = CYLINDRICAL_SURFACE ( 'NONE', #179, 7.000000000000001776 ) ;
#224 = COLOUR_RGB ( '',0.8274509803921568096, 0.8392156862745098200, 0.8274509803921568096 ) ;
#225 = ORIENTED_EDGE ( 'NONE', *, *, #46, .T. ) ;
#226 = CARTESIAN_POINT ( 'NONE',  ( 4.916065015030602225, -1.548540399721004768, -4.754207893023148834 ) ) ;
#227 = EDGE_LOOP ( 'NONE', ( #196 ) ) ;
#228 = VERTEX_POINT ( 'NONE', #281 ) ;
#229 = CARTESIAN_POINT ( 'NONE',  ( 4.916065015030602225, 1.548540399721004768, 4.754207893023148834 ) ) ;
#230 = CONICAL_SURFACE ( 'NONE', #298, 6.000000000000003553, 0.7853981633974471688 ) ;
#231 = EDGE_CURVE ( 'NONE', #228, #228, #26, .T. ) ;
#232 = CARTESIAN_POINT ( 'NONE',  ( 3.229103786318485270, -0.9775721955539335983, 4.904290378754618374 ) ) ;
#233 = CARTESIAN_POINT ( 'NONE',  ( 4.709534619576107417, 1.589711517697346643, 4.740599893489441996 ) ) ;
#234 = DIRECTION ( 'NONE',  ( 0.000000000000000000, 0.000000000000000000, -1.000000000000000000 ) ) ;
#235 = ADVANCED_FACE ( 'NONE', ( #21, #126, #315, #72 ), #292, .T. ) ;
#236 = CARTESIAN_POINT ( 'NONE',  ( 6.100000000000000533, -8.809142651444723526E-17, 5.000000000000000888 ) ) ;
#237 = CARTESIAN_POINT ( 'NONE',  ( 6.100000000000001421, 0.1064568721275317015, 5.000000000000000888 ) ) ;
#238 = CARTESIAN_POINT ( 'NONE',  ( 6.048398716803445652, 0.4164570910027821093, -4.983689229185110925 ) ) ;
#239 = CIRCLE ( 'NONE', #162, 7.000000000000001776 ) ;
#240 = CARTESIAN_POINT ( 'NONE',  ( 3.113206633933879974, 0.8047538401928571172, -4.935593457058645050 ) ) ;
#241 = CARTESIAN_POINT ( 'NONE',  ( 5.704302147398458089, 1.058495106074707648, 4.887254036013562342 ) ) ;
#242 = DIRECTION ( 'NONE',  ( 0.000000000000000000, 0.000000000000000000, 1.000000000000000000 ) ) ;
#243 = CARTESIAN_POINT ( 'NONE',  ( 6.017132676048076334, -0.5189085906167438811, -4.973953507013995967 ) ) ;
#244 = SURFACE_SIDE_STYLE ('',( #69 ) ) ;
#245 = CARTESIAN_POINT ( 'NONE',  ( 6.100000000000000533, 8.809142651444723526E-17, -5.000000000000000888 ) ) ;
#246 = EDGE_LOOP ( 'NONE', ( #204 ) ) ;
#247 = ORIENTED_EDGE ( 'NONE', *, *, #146, .T. ) ;
#248 = CARTESIAN_POINT ( 'NONE',  ( 6.089475706034878755, -0.2111038839405535161, -4.996603993892516193 ) ) ;
#249 = ORIENTED_EDGE ( 'NONE', *, *, #168, .T. ) ;
#250 = CARTESIAN_POINT ( 'NONE',  ( 3.294500965124597336, 1.057204497118341635, 4.887542372218232956 ) ) ;
#251 =( NAMED_UNIT ( * ) PLANE_ANGLE_UNIT ( ) SI_UNIT ( $, .RADIAN. ) );
#252 = CARTESIAN_POINT ( 'NONE',  ( 3.690483084190255170, 1.396116313793227759, 4.801880093366744262 ) ) ;
#253 = PRODUCT_CONTEXT ( 'NONE', #121, 'mechanical' ) ;
#254 = B_SPLINE_CURVE_WITH_KNOTS ( 'NONE', 3,
 ( #33, #56, #140, #8, #185, #104, #6, #255, #108, #282, #209, #283, #183, #3, #53, #30, #111, #206, #280, #181, #51, #133, #232, #160, #304, #34, #81, #207, #278, #187, #49, #208, #302, #156, #250, #109, #252, #76, #28, #31, #136, #132, #233, #229, #303, #16, #83, #241, #39, #167, #87, #165, #265, #214, #237, #236 ),
 .UNSPECIFIED., .T., .F.,
 ( 4, 2, 2, 2, 2, 2, 2, 2, 2, 2, 2, 2, 2, 2, 2, 2, 2, 2, 2, 2, 2, 2, 2, 2, 2, 2, 2, 4 ),
 ( 0.000000000000000000, 0.0003146881725221890055, 0.0006293763450443780110, 0.0009440645175665671792, 0.001258752690088756456, 0.001888129035133135659, 0.002202817207655325370, 0.002517505380177515080, 0.002832193552699704357, 0.003146881725221894067, 0.003776258070266273054, 0.004090946242788461897, 0.004405634415310650739, 0.004720322587832839582, 0.005035010760355028425, 0.005664387105399406978, 0.005979075277921595821, 0.006293763450443784664, 0.006923139795488161483, 0.007237827968010349458, 0.007552516140532538301, 0.007867204313054725409, 0.008181892485576913385, 0.008811268830621291070, 0.009125957003143479046, 0.009440645175665668756, 0.009755333348187856732, 0.01007002152071004644 ),
 .UNSPECIFIED. ) ;
#255 = CARTESIAN_POINT ( 'NONE',  ( 5.771380929598380227, -0.9769741417713152520, 4.904414810339023489 ) ) ;
#256 =( GEOMETRIC_REPRESENTATION_CONTEXT ( 3 ) GLOBAL_UNCERTAINTY_ASSIGNED_CONTEXT ( ( #102 ) ) GLOBAL_UNIT_ASSIGNED_CONTEXT ( ( #186, #260, #79 ) ) REPRESENTATION_CONTEXT ( 'NONE', 'WORKASPACE' ) );
#257 = CARTESIAN_POINT ( 'NONE',  ( 3.516010339754370939, -1.278828149432289507, -4.836073378273226808 ) ) ;
#258 = ADVANCED_FACE ( 'NONE', ( #122 ), #274, .F. ) ;
#259 = PRODUCT_DEFINITION_SHAPE ( 'NONE', 'NONE',  #130 ) ;
#260 =( NAMED_UNIT ( * ) PLANE_ANGLE_UNIT ( ) SI_UNIT ( $, .RADIAN. ) );
#261 = ADVANCED_BREP_SHAPE_REPRESENTATION ( '76.04.01.0005', ( #86, #139 ), #89 ) ;
#262 = CARTESIAN_POINT ( 'NONE',  ( 28.99999999999999645, 0.000000000000000000, 0.000000000000000000 ) ) ;
#263 = CARTESIAN_POINT ( 'NONE',  ( 5.018896343895980827, 1.517096310676901316, -4.764469806433504928 ) ) ;
#264 = AXIS2_PLACEMENT_3D ( 'NONE', #262, #115, #169 ) ;
#265 = CARTESIAN_POINT ( 'NONE',  ( 6.048322318164369271, 0.4167683636793793611, 4.983665363227496314 ) ) ;
#266 = CARTESIAN_POINT ( 'NONE',  ( 3.294500965124597336, -1.057204497118341635, -4.887542372218232956 ) ) ;
#267 = APPLICATION_CONTEXT ( 'automotive_design' ) ;
#268 = EDGE_CURVE ( 'NONE', #157, #157, #125, .T. ) ;
#269 = DIRECTION ( 'NONE',  ( 1.000000000000000000, 0.000000000000000000, 0.000000000000000000 ) ) ;
#270 = CARTESIAN_POINT ( 'NONE',  ( 4.605180623664971051, -1.600018042433559273, -4.737081618913771663 ) ) ;
#271 = ORIENTED_EDGE ( 'NONE', *, *, #231, .F. ) ;
#272 = EDGE_CURVE ( 'NONE', #297, #297, #239, .T. ) ;
#273 = DIRECTION ( 'NONE',  ( 0.000000000000000000, 0.000000000000000000, 1.000000000000000000 ) ) ;
#274 = PLANE ( 'NONE',  #114 ) ;
#275 = ORIENTED_EDGE ( 'NONE', *, *, #96, .T. ) ;
#276 = DIRECTION ( 'NONE',  ( -1.000000000000000000, -0.000000000000000000, -0.000000000000000000 ) ) ;
#277 = SURFACE_SIDE_STYLE ('',( #128 ) ) ;
#278 = CARTESIAN_POINT ( 'NONE',  ( 2.900043435418092397, -0.1055410596049274619, 4.999986100667269895 ) ) ;
#279 = ADVANCED_FACE ( 'NONE', ( #124, #44 ), #223, .T. ) ;
#280 = CARTESIAN_POINT ( 'NONE',  ( 3.983263501142017660, -1.517921279877725960, 4.764211000957057962 ) ) ;
#281 = CARTESIAN_POINT ( 'NONE',  ( 6.099999999999999645, 4.814824860968089633E-32, -5.000000000000000888 ) ) ;
#282 = CARTESIAN_POINT ( 'NONE',  ( 5.484428572657345846, -1.278220547835520415, 4.836193874793403680 ) ) ;
#283 = CARTESIAN_POINT ( 'NONE',  ( 5.018896343895980827, -1.517096310676901316, 4.764469806433504928 ) ) ;
#284 = CARTESIAN_POINT ( 'NONE',  ( 3.228699494468174169, -0.9770515933240230266, -4.904395295079966743 ) ) ;
#285 = DIRECTION ( 'NONE',  ( 0.000000000000000000, 0.000000000000000000, 1.000000000000000000 ) ) ;
#286 = DIRECTION ( 'NONE',  ( -1.000000000000000000, -0.000000000000000000, -0.000000000000000000 ) ) ;
#287 = FACE_OUTER_BOUND ( 'NONE', #93, .T. ) ;
#288 = CARTESIAN_POINT ( 'NONE',  ( 3.112824074934162244, -0.8041005809600070275, -4.935701093271283924 ) ) ;
#289 = FACE_OUTER_BOUND ( 'NONE', #71, .T. ) ;
#290 = FACE_OUTER_BOUND ( 'NONE', #73, .T. ) ;
#291 = EDGE_LOOP ( 'NONE', ( #247 ) ) ;
#292 = CYLINDRICAL_SURFACE ( 'NONE', #184, 5.000000000000000888 ) ;
#293 = EDGE_LOOP ( 'NONE', ( #154 ) ) ;
#294 = DIRECTION ( 'NONE',  ( 0.000000000000000000, 0.000000000000000000, 1.000000000000000000 ) ) ;
#295 = CARTESIAN_POINT ( 'NONE',  ( 4.082454086211050104, -1.548098700590048837, -4.754351811178198162 ) ) ;
#296 = ORIENTED_EDGE ( 'NONE', *, *, #46, .F. ) ;
#297 = VERTEX_POINT ( 'NONE', #7 ) ;
#298 = AXIS2_PLACEMENT_3D ( 'NONE', #15, #10, #285 ) ;
#299 =( NAMED_UNIT ( * ) SI_UNIT ( $, .STERADIAN. ) SOLID_ANGLE_UNIT ( ) );
#300 = CARTESIAN_POINT ( 'NONE',  ( 1.499999999999999556, 0.000000000000000000, 4.999999999999999112 ) ) ;
#301 =( LENGTH_UNIT ( ) NAMED_UNIT ( * ) SI_UNIT ( .MILLI., .METRE. ) );
#302 = CARTESIAN_POINT ( 'NONE',  ( 3.112824074934162244, 0.8041005809600070275, 4.935701093271283924 ) ) ;
#303 = CARTESIAN_POINT ( 'NONE',  ( 5.018004077861285772, 1.517419029584870849, 4.764367578042565832 ) ) ;
#304 = CARTESIAN_POINT ( 'NONE',  ( 3.062911089477190707, -0.7111038461901143526, 4.950127167846448906 ) ) ;
#305 = CARTESIAN_POINT ( 'NONE',  ( 3.062579770376250288, -0.7104558025390953491, -4.950223336938929464 ) ) ;
#306 = DIRECTION ( 'NONE',  ( 0.000000000000000000, 0.000000000000000000, 1.000000000000000000 ) ) ;
#307 = CARTESIAN_POINT ( 'NONE',  ( 3.691374501153253274, 1.396614222770661717, -4.801732458908710477 ) ) ;
#308 = ADVANCED_FACE ( 'NONE', ( #118, #289 ), #176, .F. ) ;
#309 = PRODUCT_DEFINITION_FORMATION_WITH_SPECIFIED_SOURCE ( 'ANY', '', #215, .NOT_KNOWN. ) ;
#310 = CARTESIAN_POINT ( 'NONE',  ( 3.229103786318485270, 0.9775721955539335983, -4.904290378754618374 ) ) ;
#311 = FACE_OUTER_BOUND ( 'NONE', #22, .T. ) ;
#312 = CARTESIAN_POINT ( 'NONE',  ( 2.952116927792507450, 0.4185597827194367793, -4.983528150331256512 ) ) ;
#313 = DIRECTION ( 'NONE',  ( -1.000000000000000000, -0.000000000000000000, -0.000000000000000000 ) ) ;
#314 = PRODUCT_DEFINITION_CONTEXT ( 'detailed design', #267, 'design' ) ;
#315 = FACE_OUTER_BOUND ( 'NONE', #227, .T. ) ;
#316 = ORIENTED_EDGE ( 'NONE', *, *, #96, .F. ) ;
#317 = AXIS2_PLACEMENT_3D ( 'NONE', #74, #137, #234 ) ;
#318 = CARTESIAN_POINT ( 'NONE',  ( 0.000000000000000000, 0.000000000000000000, 0.000000000000000000 ) ) ;
ENDSEC;
END-ISO-10303-21;
