ISO-10303-21;
HEADER;
FILE_DESCRIPTION (( 'STEP AP214' ),
    '1' );
FILE_NAME ('76.04.01.0003.step',
    '2021-04-02T17:59:39',
    ( '' ),
    ( '' ),
    'SwSTEP 2.0',
    'SolidWorks 2021',
    '' );
FILE_SCHEMA (( 'AUTOMOTIVE_DESIGN' ));
ENDSEC;

DATA;
#1 = EDGE_LOOP ( 'NONE', ( #142 ) ) ;
#2 = PRODUCT_RELATED_PRODUCT_CATEGORY ( 'part', '', ( #268 ) ) ;
#3 = EDGE_LOOP ( 'NONE', ( #127 ) ) ;
#4 = SURFACE_STYLE_USAGE ( .BOTH. , #172 ) ;
#5 =( GEOMETRIC_REPRESENTATION_CONTEXT ( 3 ) GLOBAL_UNCERTAINTY_ASSIGNED_CONTEXT ( ( #84 ) ) GLOBAL_UNIT_ASSIGNED_CONTEXT ( ( #188, #17, #42 ) ) REPRESENTATION_CONTEXT ( 'NONE', 'WORKASPACE' ) );
#6 = CARTESIAN_POINT ( 'NONE',  ( 18.00000000000000000, 0.000000000000000000, 0.000000000000000000 ) ) ;
#7 = CARTESIAN_POINT ( 'NONE',  ( 2.595636755072557200, 0.8000674022809903807, -2.891347809711299455 ) ) ;
#8 = CARTESIAN_POINT ( 'NONE',  ( 2.490585074020934542, 0.7792362533643526490, -2.897329895670207378 ) ) ;
#9 = VERTEX_POINT ( 'NONE', #260 ) ;
#10 = CARTESIAN_POINT ( 'NONE',  ( 19.50000000000000355, 0.000000000000000000, 4.000000000000001776 ) ) ;
#11 = PLANE ( 'NONE',  #208 ) ;
#12 = CARTESIAN_POINT ( 'NONE',  ( 1.900044693626509185, -0.1050428476239875508, 2.999988081700601494 ) ) ;
#13 = DIRECTION ( 'NONE',  ( 0.000000000000000000, 0.000000000000000000, -1.000000000000000000 ) ) ;
#14 = CARTESIAN_POINT ( 'NONE',  ( 0.000000000000000000, 0.000000000000000000, 0.000000000000000000 ) ) ;
#15 = COLOUR_RGB ( '',0.8274509803921568096, 0.8392156862745098200, 0.8274509803921568096 ) ;
#16 = ADVANCED_FACE ( 'NONE', ( #144 ), #121, .F. ) ;
#17 =( NAMED_UNIT ( * ) PLANE_ANGLE_UNIT ( ) SI_UNIT ( $, .RADIAN. ) );
#18 = EDGE_LOOP ( 'NONE', ( #63 ) ) ;
#19 = DIRECTION ( 'NONE',  ( 0.000000000000000000, 0.000000000000000000, 1.000000000000000000 ) ) ;
#20 = CARTESIAN_POINT ( 'NONE',  ( 0.000000000000000000, 0.000000000000000000, 0.000000000000000000 ) ) ;
#21 = COLOUR_RGB ( '',0.8274509803921568096, 0.8392156862745098200, 0.8274509803921568096 ) ;
#22 = SURFACE_SIDE_STYLE ('',( #62 ) ) ;
#23 = EDGE_LOOP ( 'NONE', ( #39 ) ) ;
#24 = DIRECTION ( 'NONE',  ( -0.000000000000000000, 0.000000000000000000, 1.000000000000000000 ) ) ;
#25 = DIRECTION ( 'NONE',  ( -1.000000000000000000, -0.000000000000000000, -0.000000000000000000 ) ) ;
#26 = CARTESIAN_POINT ( 'NONE',  ( 3.103276034891882862, 0.6987205349143893462, -2.917788673040720315 ) ) ;
#27 = APPLICATION_CONTEXT ( 'automotive_design' ) ;
#28 = CARTESIAN_POINT ( 'NONE',  ( 2.805394048332756629, 0.7999322656703312662, -2.891385200082222884 ) ) ;
#29 = CARTESIAN_POINT ( 'NONE',  ( 3.398330343627649075, -0.4040150630373650631, -2.974248258878045892 ) ) ;
#30 = PLANE ( 'NONE',  #255 ) ;
#31 = CARTESIAN_POINT ( 'NONE',  ( 1.921055294625000576, 0.2100908461807645955, 2.994203398438205266 ) ) ;
#32 = CARTESIAN_POINT ( 'NONE',  ( 2.805157936786852879, 0.8000478770550074614, 2.891353212061239741 ) ) ;
#33 = CARTESIAN_POINT ( 'NONE',  ( 1.899955451671233142, 0.1043609731723586648, 3.000011879553334815 ) ) ;
#34 = CARTESIAN_POINT ( 'NONE',  ( 2.296275808525187756, -0.6986204455912670142, 2.917817529576431479 ) ) ;
#35 = CARTESIAN_POINT ( 'NONE',  ( 3.499999999999997335, -2.407412430484044816E-32, -3.000000000000000000 ) ) ;
#36 = FACE_OUTER_BOUND ( 'NONE', #23, .T. ) ;
#37 = EDGE_LOOP ( 'NONE', ( #61 ) ) ;
#38 = ORIENTED_EDGE ( 'NONE', *, *, #92, .F. ) ;
#39 = ORIENTED_EDGE ( 'NONE', *, *, #174, .T. ) ;
#40 = DIRECTION ( 'NONE',  ( -1.000000000000000000, -0.000000000000000000, -0.000000000000000000 ) ) ;
#41 = CARTESIAN_POINT ( 'NONE',  ( 1.900044693626509185, 0.1050428476239875508, -2.999988081700601494 ) ) ;
#42 =( NAMED_UNIT ( * ) SI_UNIT ( $, .STERADIAN. ) SOLID_ANGLE_UNIT ( ) );
#43 = AXIS2_PLACEMENT_3D ( 'NONE', #232, #40, #107 ) ;
#44 =( GEOMETRIC_REPRESENTATION_CONTEXT ( 3 ) GLOBAL_UNCERTAINTY_ASSIGNED_CONTEXT ( ( #193 ) ) GLOBAL_UNIT_ASSIGNED_CONTEXT ( ( #154, #46, #113 ) ) REPRESENTATION_CONTEXT ( 'NONE', 'WORKASPACE' ) );
#45 = CARTESIAN_POINT ( 'NONE',  ( 3.499999999999998668, -2.710505431213761085E-17, -3.000000000000000888 ) ) ;
#46 =( NAMED_UNIT ( * ) PLANE_ANGLE_UNIT ( ) SI_UNIT ( $, .RADIAN. ) );
#47 = CARTESIAN_POINT ( 'NONE',  ( 3.339006520441565318, 0.4923966018059849348, -2.960259088327510391 ) ) ;
#48 = CARTESIAN_POINT ( 'NONE',  ( 0.9999999999999997780, 0.000000000000000000, 0.000000000000000000 ) ) ;
#49 = DIRECTION ( 'NONE',  ( -1.000000000000000000, -0.000000000000000000, -0.000000000000000000 ) ) ;
#50 = CARTESIAN_POINT ( 'NONE',  ( 2.281418850590172465, 0.7129790216509425127, 2.917921559917155960 ) ) ;
#51 = FACE_OUTER_BOUND ( 'NONE', #3, .T. ) ;
#52 = STYLED_ITEM ( 'NONE', ( #147 ), #167 ) ;
#53 = CARTESIAN_POINT ( 'NONE',  ( 3.499999999999998668, 2.710505431213761085E-17, 3.000000000000000888 ) ) ;
#54 = PRODUCT_CONTEXT ( 'NONE', #27, 'mechanical' ) ;
#55 = CARTESIAN_POINT ( 'NONE',  ( 19.50000000000000355, 0.000000000000000000, 0.000000000000000000 ) ) ;
#56 = CARTESIAN_POINT ( 'NONE',  ( 0.9999999999999997780, 0.000000000000000000, 2.999999999999998668 ) ) ;
#57 = DIRECTION ( 'NONE',  ( -1.000000000000000000, -0.000000000000000000, -0.000000000000000000 ) ) ;
#58 = CIRCLE ( 'NONE', #137, 3.000000000000000888 ) ;
#59 =( NAMED_UNIT ( * ) PLANE_ANGLE_UNIT ( ) SI_UNIT ( $, .RADIAN. ) );
#60 = DIRECTION ( 'NONE',  ( 0.000000000000000000, 0.000000000000000000, 1.000000000000000000 ) ) ;
#61 = ORIENTED_EDGE ( 'NONE', *, *, #101, .T. ) ;
#62 = SURFACE_STYLE_FILL_AREA ( #223 ) ;
#63 = ORIENTED_EDGE ( 'NONE', *, *, #149, .F. ) ;
#64 = FACE_OUTER_BOUND ( 'NONE', #231, .T. ) ;
#65 = CARTESIAN_POINT ( 'NONE',  ( 2.060326361021633357, 0.4917064036732171073, -2.960389314151348650 ) ) ;
#66 = DIRECTION ( 'NONE',  ( 1.000000000000000000, 0.000000000000000000, 0.000000000000000000 ) ) ;
#67 = AXIS2_PLACEMENT_3D ( 'NONE', #165, #247, #60 ) ;
#68 = CARTESIAN_POINT ( 'NONE',  ( 3.191890983426895811, -0.6393867984489254308, -2.932023600225241555 ) ) ;
#69 = PRODUCT_DEFINITION_SHAPE ( 'NONE', 'NONE',  #85 ) ;
#70 = FILL_AREA_STYLE ('',( #108 ) ) ;
#71 = FACE_BOUND ( 'NONE', #245, .T. ) ;
#72 = CIRCLE ( 'NONE', #265, 4.500000000000000888 ) ;
#73 = CARTESIAN_POINT ( 'NONE',  ( 3.499999999999998668, 0.1062192327973421890, 3.000000000000000888 ) ) ;
#74 = DIRECTION ( 'NONE',  ( -1.000000000000000000, -0.000000000000000000, -0.000000000000000000 ) ) ;
#75 = CARTESIAN_POINT ( 'NONE',  ( 3.499999999999998668, 2.710505431213761085E-17, 3.000000000000000888 ) ) ;
#76 = CARTESIAN_POINT ( 'NONE',  ( 19.00000000000000355, 0.000000000000000000, 4.500000000000000888 ) ) ;
#77 = FACE_BOUND ( 'NONE', #210, .T. ) ;
#78 = ORIENTED_EDGE ( 'NONE', *, *, #149, .T. ) ;
#79 = CARTESIAN_POINT ( 'NONE',  ( 18.00000000000000000, 0.000000000000000000, 4.500000000000000888 ) ) ;
#80 = ORIENTED_EDGE ( 'NONE', *, *, #267, .F. ) ;
#81 = EDGE_LOOP ( 'NONE', ( #141 ) ) ;
#82 = DIRECTION ( 'NONE',  ( 0.000000000000000000, 0.000000000000000000, 1.000000000000000000 ) ) ;
#83 = EDGE_LOOP ( 'NONE', ( #80 ) ) ;
#84 = UNCERTAINTY_MEASURE_WITH_UNIT (LENGTH_MEASURE( 1.000000000000000082E-05 ), #188, 'distance_accuracy_value', 'NONE');
#85 = PRODUCT_DEFINITION ( 'UNKNOWN', '', #220, #111 ) ;
#86 = AXIS2_PLACEMENT_3D ( 'NONE', #203, #57, #19 ) ;
#87 = DIRECTION ( 'NONE',  ( -1.000000000000000000, -0.000000000000000000, -0.000000000000000000 ) ) ;
#88 = CARTESIAN_POINT ( 'NONE',  ( 2.001378340831781788, 0.4035480795171221269, -2.974317034154170258 ) ) ;
#89 = CARTESIAN_POINT ( 'NONE',  ( 2.281418850590172465, -0.7129790216509425127, -2.917921559917155960 ) ) ;
#90 = UNCERTAINTY_MEASURE_WITH_UNIT (LENGTH_MEASURE( 1.000000000000000082E-05 ), #266, 'distance_accuracy_value', 'NONE');
#91 = CARTESIAN_POINT ( 'NONE',  ( 3.398330343627649075, 0.4040150630373650631, 2.974248258878045892 ) ) ;
#92 = EDGE_CURVE ( 'NONE', #202, #202, #156, .T. ) ;
#93 = CARTESIAN_POINT ( 'NONE',  ( 3.478916365038730696, -0.2104137889722128840, 2.994192765657750499 ) ) ;
#94 = AXIS2_PLACEMENT_3D ( 'NONE', #115, #25, #192 ) ;
#95 = FACE_OUTER_BOUND ( 'NONE', #18, .T. ) ;
#96 = ADVANCED_BREP_SHAPE_REPRESENTATION ( '76.04.01.0003', ( #167, #246 ), #257 ) ;
#97 = CARTESIAN_POINT ( 'NONE',  ( -1.056311621870768530E-16, 2.000000000000002665, 0.000000000000000000 ) ) ;
#98 = CARTESIAN_POINT ( 'NONE',  ( 3.499999999999998224, -0.1062192327973421335, 3.000000000000001332 ) ) ;
#99 = STYLED_ITEM ( 'NONE', ( #122 ), #96 ) ;
#100 = EDGE_LOOP ( 'NONE', ( #106 ) ) ;
#101 = EDGE_CURVE ( 'NONE', #198, #198, #72, .T. ) ;
#102 = CARTESIAN_POINT ( 'NONE',  ( 19.00000000000000355, 0.000000000000000000, 0.000000000000000000 ) ) ;
#103 = AXIS2_PLACEMENT_3D ( 'NONE', #20, #195, #128 ) ;
#104 = CIRCLE ( 'NONE', #114, 4.500000000000000888 ) ;
#105 = APPLICATION_PROTOCOL_DEFINITION ( 'draft international standard', 'automotive_design', 1998, #27 ) ;
#106 = ORIENTED_EDGE ( 'NONE', *, *, #92, .T. ) ;
#107 = DIRECTION ( 'NONE',  ( 0.000000000000000000, 0.000000000000000000, 1.000000000000000000 ) ) ;
#108 = FILL_AREA_STYLE_COLOUR ( '', #21 ) ;
#109 = PRESENTATION_LAYER_ASSIGNMENT (  '', '', ( #52 ) ) ;
#110 = CARTESIAN_POINT ( 'NONE',  ( 2.296275808525187756, 0.6986204455912670142, -2.917817529576431479 ) ) ;
#111 = PRODUCT_DEFINITION_CONTEXT ( 'detailed design', #236, 'design' ) ;
#112 = SURFACE_STYLE_FILL_AREA ( #70 ) ;
#113 =( NAMED_UNIT ( * ) SI_UNIT ( $, .STERADIAN. ) SOLID_ANGLE_UNIT ( ) );
#114 = AXIS2_PLACEMENT_3D ( 'NONE', #221, #74, #116 ) ;
#115 = CARTESIAN_POINT ( 'NONE',  ( 19.50000000000000355, 0.000000000000000000, 0.000000000000000000 ) ) ;
#116 = DIRECTION ( 'NONE',  ( 0.000000000000000000, 0.000000000000000000, 1.000000000000000000 ) ) ;
#117 = CARTESIAN_POINT ( 'NONE',  ( 2.699999999999997513, -2.407412430484044816E-32, -4.500000000000000888 ) ) ;
#118 = CARTESIAN_POINT ( 'NONE',  ( 3.192115471481314248, -0.6392230513409553616, 2.932061079536042669 ) ) ;
#119 = CARTESIAN_POINT ( 'NONE',  ( 0.9999999999999997780, 0.000000000000000000, 0.000000000000000000 ) ) ;
#120 = ADVANCED_FACE ( 'NONE', ( #204, #77, #162, #36 ), #163, .T. ) ;
#121 = PLANE ( 'NONE',  #250 ) ;
#122 = PRESENTATION_STYLE_ASSIGNMENT (( #228 ) ) ;
#123 = FACE_OUTER_BOUND ( 'NONE', #37, .T. ) ;
#124 = FILL_AREA_STYLE_COLOUR ( '', #15 ) ;
#125 = ADVANCED_FACE ( 'NONE', ( #185, #269 ), #186, .T. ) ;
#126 = ORIENTED_EDGE ( 'NONE', *, *, #241, .T. ) ;
#127 = ORIENTED_EDGE ( 'NONE', *, *, #191, .F. ) ;
#128 = DIRECTION ( 'NONE',  ( 0.000000000000000000, 0.000000000000000000, 1.000000000000000000 ) ) ;
#129 = DIRECTION ( 'NONE',  ( 0.000000000000000000, 0.000000000000000000, -1.000000000000000000 ) ) ;
#130 = B_SPLINE_CURVE_WITH_KNOTS ( 'NONE', 3,
 ( #53, #98, #93, #176, #180, #118, #201, #216, #222, #157, #158, #34, #218, #134, #240, #199, #12, #33, #31, #161, #263, #50, #239, #32, #155, #264, #177, #259, #91, #179, #73, #75 ),
 .UNSPECIFIED., .T., .F.,
 ( 4, 2, 2, 2, 2, 2, 2, 2, 2, 2, 2, 2, 2, 2, 2, 4 ),
 ( 0.000000000000000000, 0.0003140298225945293968, 0.0006280596451890587935, 0.0009420894677835882445, 0.001256119290378117587, 0.001570149112972647146, 0.001884178935567176489, 0.002198208758161706265, 0.002512238580756236041, 0.002826268403350765384, 0.003140298225945294293, 0.003768357871134353412, 0.004082387693728884055, 0.004396417516323413398, 0.004710447338917943608, 0.005024477161512472950 ),
 .UNSPECIFIED. ) ;
#131 = CARTESIAN_POINT ( 'NONE',  ( 2.488593323249359557, -0.7999039980042521591, -2.891393021344994985 ) ) ;
#132 = CARTESIAN_POINT ( 'NONE',  ( 2.805157936786852879, -0.8000478770550074614, -2.891353212061239741 ) ) ;
#133 = ADVANCED_FACE ( 'NONE', ( #229, #123 ), #206, .T. ) ;
#134 = CARTESIAN_POINT ( 'NONE',  ( 2.060326361021633357, -0.4917064036732171073, 2.960389314151348650 ) ) ;
#135 = DIRECTION ( 'NONE',  ( -0.000000000000000000, -0.000000000000000000, 1.000000000000000000 ) ) ;
#136 = FACE_OUTER_BOUND ( 'NONE', #100, .T. ) ;
#137 = AXIS2_PLACEMENT_3D ( 'NONE', #6, #87, #253 ) ;
#138 = DIRECTION ( 'NONE',  ( 0.000000000000000000, 0.000000000000000000, 1.000000000000000000 ) ) ;
#139 = VERTEX_POINT ( 'NONE', #35 ) ;
#140 = ORIENTED_EDGE ( 'NONE', *, *, #267, .T. ) ;
#141 = ORIENTED_EDGE ( 'NONE', *, *, #171, .T. ) ;
#142 = ORIENTED_EDGE ( 'NONE', *, *, #101, .F. ) ;
#143 = EDGE_LOOP ( 'NONE', ( #244 ) ) ;
#144 = FACE_OUTER_BOUND ( 'NONE', #248, .T. ) ;
#145 = AXIS2_PLACEMENT_3D ( 'NONE', #119, #242, #13 ) ;
#146 = SHAPE_DEFINITION_REPRESENTATION ( #69, #96 ) ;
#147 = PRESENTATION_STYLE_ASSIGNMENT (( #4 ) ) ;
#148 = CARTESIAN_POINT ( 'NONE',  ( 1.899955451671233142, -0.1043609731723586648, -3.000011879553334815 ) ) ;
#149 = EDGE_CURVE ( 'NONE', #139, #139, #200, .T. ) ;
#150 = CARTESIAN_POINT ( 'NONE',  ( 2.208373063196236163, 0.6397347159768809188, -2.931965138252623948 ) ) ;
#151 = CIRCLE ( 'NONE', #225, 2.999999999999998668 ) ;
#152 = DIRECTION ( 'NONE',  ( 1.000000000000000000, 0.000000000000000000, 0.000000000000000000 ) ) ;
#153 = FACE_BOUND ( 'NONE', #183, .T. ) ;
#154 =( LENGTH_UNIT ( ) NAMED_UNIT ( * ) SI_UNIT ( .MILLI., .METRE. ) );
#155 = CARTESIAN_POINT ( 'NONE',  ( 2.910183360198649982, 0.7789291159944901066, 2.897408415284752792 ) ) ;
#156 = CIRCLE ( 'NONE', #43, 2.000000000000002665 ) ;
#157 = CARTESIAN_POINT ( 'NONE',  ( 2.595636755072557200, -0.8000674022809903807, 2.891347809711299455 ) ) ;
#158 = CARTESIAN_POINT ( 'NONE',  ( 2.490585074020934542, -0.7792362533643526490, 2.897329895670207378 ) ) ;
#159 = ADVANCED_FACE ( 'NONE', ( #153, #64 ), #30, .F. ) ;
#160 = DIRECTION ( 'NONE',  ( 1.000000000000000000, 0.000000000000000000, 0.000000000000000000 ) ) ;
#161 = CARTESIAN_POINT ( 'NONE',  ( 2.001027699453194142, 0.4029028924554883817, 2.974401017704042527 ) ) ;
#162 = FACE_OUTER_BOUND ( 'NONE', #166, .T. ) ;
#163 = CYLINDRICAL_SURFACE ( 'NONE', #86, 3.000000000000000000 ) ;
#164 = VERTEX_POINT ( 'NONE', #79 ) ;
#165 = CARTESIAN_POINT ( 'NONE',  ( 19.50000000000000355, 0.000000000000000000, 0.000000000000000000 ) ) ;
#166 = EDGE_LOOP ( 'NONE', ( #209 ) ) ;
#167 = MANIFOLD_SOLID_BREP ( 'Cut-Extrude1', #168 ) ;
#168 = CLOSED_SHELL ( 'NONE', ( #16, #125, #133, #159, #120, #238, #217, #182 ) ) ;
#169 = CARTESIAN_POINT ( 'NONE',  ( 3.499999999999998224, 0.1062192327973421335, -3.000000000000001332 ) ) ;
#170 = PRESENTATION_LAYER_ASSIGNMENT (  '', '', ( #99 ) ) ;
#171 = EDGE_CURVE ( 'NONE', #197, #197, #178, .T. ) ;
#172 = SURFACE_SIDE_STYLE ('',( #112 ) ) ;
#173 = CARTESIAN_POINT ( 'NONE',  ( 3.499999999999998668, -0.1062192327973421890, -3.000000000000000888 ) ) ;
#174 = EDGE_CURVE ( 'NONE', #9, #9, #58, .T. ) ;
#175 = CARTESIAN_POINT ( 'NONE',  ( 1.921153661830899306, 0.2105270924643564412, -2.994176216504319754 ) ) ;
#176 = CARTESIAN_POINT ( 'NONE',  ( 3.398427420106508556, -0.4039601529336269148, 2.974269738162408583 ) ) ;
#177 = CARTESIAN_POINT ( 'NONE',  ( 3.191890983426895811, 0.6393867984489254308, 2.932023600225241555 ) ) ;
#178 = CIRCLE ( 'NONE', #94, 4.000000000000001776 ) ;
#179 = CARTESIAN_POINT ( 'NONE',  ( 3.478610621913210466, 0.2113266179072534334, 2.994114549773281286 ) ) ;
#180 = CARTESIAN_POINT ( 'NONE',  ( 3.339006520441565318, -0.4923966018059849348, 2.960259088327510391 ) ) ;
#181 = CARTESIAN_POINT ( 'NONE',  ( -2.112623243741537060E-16, 0.000000000000000000, 2.000000000000002665 ) ) ;
#182 = ADVANCED_FACE ( 'NONE', ( #95, #51 ), #243, .F. ) ;
#183 = EDGE_LOOP ( 'NONE', ( #227 ) ) ;
#184 = VERTEX_POINT ( 'NONE', #230 ) ;
#185 = FACE_OUTER_BOUND ( 'NONE', #1, .T. ) ;
#186 = CONICAL_SURFACE ( 'NONE', #67, 4.000000000000001776, 0.7853981633974466137 ) ;
#187 = DIRECTION ( 'NONE',  ( 0.000000000000000000, 0.000000000000000000, 1.000000000000000000 ) ) ;
#188 =( LENGTH_UNIT ( ) NAMED_UNIT ( * ) SI_UNIT ( .MILLI., .METRE. ) );
#189 = ORIENTED_EDGE ( 'NONE', *, *, #171, .F. ) ;
#190 = DIRECTION ( 'NONE',  ( -1.000000000000000000, -0.000000000000000000, -0.000000000000000000 ) ) ;
#191 = EDGE_CURVE ( 'NONE', #184, #184, #130, .T. ) ;
#192 = DIRECTION ( 'NONE',  ( 0.000000000000000000, 0.000000000000000000, 1.000000000000000000 ) ) ;
#193 = UNCERTAINTY_MEASURE_WITH_UNIT (LENGTH_MEASURE( 1.000000000000000082E-05 ), #154, 'distance_accuracy_value', 'NONE');
#194 = CARTESIAN_POINT ( 'NONE',  ( 2.910183360198649982, -0.7789291159944901066, -2.897408415284752792 ) ) ;
#195 = DIRECTION ( 'NONE',  ( -1.000000000000000000, -0.000000000000000000, -0.000000000000000000 ) ) ;
#196 = CARTESIAN_POINT ( 'NONE',  ( 3.499999999999998668, -2.710505431213761085E-17, -3.000000000000000888 ) ) ;
#197 = VERTEX_POINT ( 'NONE', #10 ) ;
#198 = VERTEX_POINT ( 'NONE', #76 ) ;
#199 = CARTESIAN_POINT ( 'NONE',  ( 1.921153661830899306, -0.2105270924643564412, 2.994176216504319754 ) ) ;
#200 = B_SPLINE_CURVE_WITH_KNOTS ( 'NONE', 3,
 ( #45, #169, #212, #256, #47, #213, #26, #254, #28, #7, #8, #110, #150, #65, #88, #175, #41, #148, #252, #258, #233, #89, #131, #132, #194, #214, #68, #234, #29, #211, #173, #196 ),
 .UNSPECIFIED., .T., .F.,
 ( 4, 2, 2, 2, 2, 2, 2, 2, 2, 2, 2, 2, 2, 2, 2, 4 ),
 ( 0.000000000000000000, 0.0003140298225945293968, 0.0006280596451890587935, 0.0009420894677835882445, 0.001256119290378117587, 0.001570149112972647146, 0.001884178935567176489, 0.002198208758161706265, 0.002512238580756236041, 0.002826268403350765384, 0.003140298225945294293, 0.003768357871134353412, 0.004082387693728884055, 0.004396417516323413398, 0.004710447338917943608, 0.005024477161512472950 ),
 .UNSPECIFIED. ) ;
#201 = CARTESIAN_POINT ( 'NONE',  ( 3.103276034891882862, -0.6987205349143893462, 2.917788673040720315 ) ) ;
#202 = VERTEX_POINT ( 'NONE', #181 ) ;
#203 = CARTESIAN_POINT ( 'NONE',  ( 0.000000000000000000, 0.000000000000000000, 0.000000000000000000 ) ) ;
#204 = FACE_BOUND ( 'NONE', #143, .T. ) ;
#205 =( NAMED_UNIT ( * ) SI_UNIT ( $, .STERADIAN. ) SOLID_ANGLE_UNIT ( ) );
#206 = CYLINDRICAL_SURFACE ( 'NONE', #103, 4.500000000000000888 ) ;
#207 = VERTEX_POINT ( 'NONE', #56 ) ;
#208 = AXIS2_PLACEMENT_3D ( 'NONE', #97, #160, #237 ) ;
#209 = ORIENTED_EDGE ( 'NONE', *, *, #241, .F. ) ;
#210 = EDGE_LOOP ( 'NONE', ( #78 ) ) ;
#211 = CARTESIAN_POINT ( 'NONE',  ( 3.478610621913210466, -0.2113266179072534334, -2.994114549773281286 ) ) ;
#212 = CARTESIAN_POINT ( 'NONE',  ( 3.478916365038730696, 0.2104137889722128840, -2.994192765657750499 ) ) ;
#213 = CARTESIAN_POINT ( 'NONE',  ( 3.192115471481314248, 0.6392230513409553616, -2.932061079536042669 ) ) ;
#214 = CARTESIAN_POINT ( 'NONE',  ( 3.103108391141977229, -0.6988642483624973867, -2.917755105396540927 ) ) ;
#215 = MECHANICAL_DESIGN_GEOMETRIC_PRESENTATION_REPRESENTATION (  '', ( #99 ), #5 ) ;
#216 = CARTESIAN_POINT ( 'NONE',  ( 2.910985013279371536, -0.7786701935997513147, 2.897477153669222538 ) ) ;
#217 = ADVANCED_FACE ( 'NONE', ( #136 ), #11, .F. ) ;
#218 = CARTESIAN_POINT ( 'NONE',  ( 2.208373063196236163, -0.6397347159768809188, 2.931965138252623948 ) ) ;
#219 = DIRECTION ( 'NONE',  ( 1.000000000000000000, 0.000000000000000000, 0.000000000000000000 ) ) ;
#220 = PRODUCT_DEFINITION_FORMATION_WITH_SPECIFIED_SOURCE ( 'ANY', '', #268, .NOT_KNOWN. ) ;
#221 = CARTESIAN_POINT ( 'NONE',  ( 18.00000000000000000, 0.000000000000000000, 0.000000000000000000 ) ) ;
#222 = CARTESIAN_POINT ( 'NONE',  ( 2.805394048332756629, -0.7999322656703312662, 2.891385200082222884 ) ) ;
#223 = FILL_AREA_STYLE ('',( #124 ) ) ;
#224 = DIRECTION ( 'NONE',  ( -1.000000000000000000, 0.000000000000000000, -0.000000000000000000 ) ) ;
#225 = AXIS2_PLACEMENT_3D ( 'NONE', #48, #49, #138 ) ;
#226 = APPLICATION_PROTOCOL_DEFINITION ( 'draft international standard', 'automotive_design', 1998, #236 ) ;
#227 = ORIENTED_EDGE ( 'NONE', *, *, #174, .F. ) ;
#228 = SURFACE_STYLE_USAGE ( .BOTH. , #22 ) ;
#229 = FACE_OUTER_BOUND ( 'NONE', #83, .T. ) ;
#230 = CARTESIAN_POINT ( 'NONE',  ( 3.499999999999997335, 0.000000000000000000, 3.000000000000000000 ) ) ;
#231 = EDGE_LOOP ( 'NONE', ( #140 ) ) ;
#232 = CARTESIAN_POINT ( 'NONE',  ( -2.112623243741537060E-16, 0.000000000000000000, 0.000000000000000000 ) ) ;
#233 = CARTESIAN_POINT ( 'NONE',  ( 2.060217614191002689, -0.4914934534635551633, -2.960419820564035742 ) ) ;
#234 = CARTESIAN_POINT ( 'NONE',  ( 3.338764023367694733, -0.4926994419101374811, -2.960206940443519841 ) ) ;
#235 = CARTESIAN_POINT ( 'NONE',  ( 18.00000000000000000, 4.500000000000000888, 0.000000000000000000 ) ) ;
#236 = APPLICATION_CONTEXT ( 'automotive_design' ) ;
#237 = DIRECTION ( 'NONE',  ( 0.000000000000000000, 0.000000000000000000, -1.000000000000000000 ) ) ;
#238 = ADVANCED_FACE ( 'NONE', ( #71, #262 ), #270, .T. ) ;
#239 = CARTESIAN_POINT ( 'NONE',  ( 2.488593323249359557, 0.7999039980042521591, 2.891393021344994985 ) ) ;
#240 = CARTESIAN_POINT ( 'NONE',  ( 2.001378340831781788, -0.4035480795171221269, 2.974317034154170258 ) ) ;
#241 = EDGE_CURVE ( 'NONE', #207, #207, #151, .T. ) ;
#242 = DIRECTION ( 'NONE',  ( 1.000000000000000000, 0.000000000000000000, 0.000000000000000000 ) ) ;
#243 = CYLINDRICAL_SURFACE ( 'NONE', #251, 0.7999999999999999334 ) ;
#244 = ORIENTED_EDGE ( 'NONE', *, *, #191, .T. ) ;
#245 = EDGE_LOOP ( 'NONE', ( #38 ) ) ;
#246 = AXIS2_PLACEMENT_3D ( 'NONE', #14, #82, #152 ) ;
#247 = DIRECTION ( 'NONE',  ( -1.000000000000000000, -0.000000000000000000, -0.000000000000000000 ) ) ;
#248 = EDGE_LOOP ( 'NONE', ( #189 ) ) ;
#249 = EDGE_LOOP ( 'NONE', ( #126 ) ) ;
#250 = AXIS2_PLACEMENT_3D ( 'NONE', #55, #224, #24 ) ;
#251 = AXIS2_PLACEMENT_3D ( 'NONE', #117, #135, #219 ) ;
#252 = CARTESIAN_POINT ( 'NONE',  ( 1.921055294625000576, -0.2100908461807645955, -2.994203398438205266 ) ) ;
#253 = DIRECTION ( 'NONE',  ( 0.000000000000000000, 0.000000000000000000, 1.000000000000000000 ) ) ;
#254 = CARTESIAN_POINT ( 'NONE',  ( 2.910985013279371536, 0.7786701935997513147, -2.897477153669222538 ) ) ;
#255 = AXIS2_PLACEMENT_3D ( 'NONE', #235, #66, #129 ) ;
#256 = CARTESIAN_POINT ( 'NONE',  ( 3.398427420106508556, 0.4039601529336269148, -2.974269738162408583 ) ) ;
#257 =( GEOMETRIC_REPRESENTATION_CONTEXT ( 3 ) GLOBAL_UNCERTAINTY_ASSIGNED_CONTEXT ( ( #90 ) ) GLOBAL_UNIT_ASSIGNED_CONTEXT ( ( #266, #59, #205 ) ) REPRESENTATION_CONTEXT ( 'NONE', 'WORKASPACE' ) );
#258 = CARTESIAN_POINT ( 'NONE',  ( 2.001027699453194142, -0.4029028924554883817, -2.974401017704042527 ) ) ;
#259 = CARTESIAN_POINT ( 'NONE',  ( 3.338764023367694733, 0.4926994419101374811, 2.960206940443519841 ) ) ;
#260 = CARTESIAN_POINT ( 'NONE',  ( 18.00000000000000000, 0.000000000000000000, 3.000000000000000888 ) ) ;
#261 = MECHANICAL_DESIGN_GEOMETRIC_PRESENTATION_REPRESENTATION (  '', ( #52 ), #44 ) ;
#262 = FACE_OUTER_BOUND ( 'NONE', #249, .T. ) ;
#263 = CARTESIAN_POINT ( 'NONE',  ( 2.060217614191002689, 0.4914934534635551633, 2.960419820564035742 ) ) ;
#264 = CARTESIAN_POINT ( 'NONE',  ( 3.103108391141977229, 0.6988642483624973867, 2.917755105396540927 ) ) ;
#265 = AXIS2_PLACEMENT_3D ( 'NONE', #102, #190, #187 ) ;
#266 =( LENGTH_UNIT ( ) NAMED_UNIT ( * ) SI_UNIT ( .MILLI., .METRE. ) );
#267 = EDGE_CURVE ( 'NONE', #164, #164, #104, .T. ) ;
#268 = PRODUCT ( '76.04.01.0003', '76.04.01.0003', '', ( #54 ) ) ;
#269 = FACE_BOUND ( 'NONE', #81, .T. ) ;
#270 = CONICAL_SURFACE ( 'NONE', #145, 2.999999999999998668, 0.7853981633974463916 ) ;
ENDSEC;
END-ISO-10303-21;
