ISO-10303-21;
HEADER;
FILE_DESCRIPTION (( 'STEP AP214' ),
    '1' );
FILE_NAME ('76.04.01.0002.step',
    '2021-04-02T17:59:37',
    ( '' ),
    ( '' ),
    'SwSTEP 2.0',
    'SolidWorks 2021',
    '' );
FILE_SCHEMA (( 'AUTOMOTIVE_DESIGN' ));
ENDSEC;

DATA;
#1 = FACE_OUTER_BOUND ( 'NONE', #173, .T. ) ;
#2 = VERTEX_POINT ( 'NONE', #226 ) ;
#3 = CARTESIAN_POINT ( 'NONE',  ( 2.961301387455566925, 0.4456680978050124864, 2.461704494234577378 ) ) ;
#4 = CARTESIAN_POINT ( 'NONE',  ( 0.000000000000000000, 0.000000000000000000, 0.000000000000000000 ) ) ;
#5 = ORIENTED_EDGE ( 'NONE', *, *, #27, .T. ) ;
#6 = AXIS2_PLACEMENT_3D ( 'NONE', #224, #9, #108 ) ;
#7 = AXIS2_PLACEMENT_3D ( 'NONE', #59, #193, #81 ) ;
#8 = CARTESIAN_POINT ( 'NONE',  ( 3.199999999999999289, 0.000000000000000000, 2.499999999999999556 ) ) ;
#9 = DIRECTION ( 'NONE',  ( -1.000000000000000000, 0.000000000000000000, -0.000000000000000000 ) ) ;
#10 = AXIS2_PLACEMENT_3D ( 'NONE', #241, #76, #155 ) ;
#11 = EDGE_CURVE ( 'NONE', #179, #179, #187, .T. ) ;
#12 = CARTESIAN_POINT ( 'NONE',  ( 15.00000000000000000, 0.000000000000000000, 0.000000000000000000 ) ) ;
#13 =( LENGTH_UNIT ( ) NAMED_UNIT ( * ) SI_UNIT ( .MILLI., .METRE. ) );
#14 = AXIS2_PLACEMENT_3D ( 'NONE', #238, #111, #135 ) ;
#15 = CARTESIAN_POINT ( 'NONE',  ( 2.567580345503921890, -0.4999066549052132435, -2.449508796765922813 ) ) ;
#16 = EDGE_CURVE ( 'NONE', #39, #39, #168, .T. ) ;
#17 = FACE_OUTER_BOUND ( 'NONE', #80, .T. ) ;
#18 = ORIENTED_EDGE ( 'NONE', *, *, #121, .F. ) ;
#19 = CARTESIAN_POINT ( 'NONE',  ( 0.7999999999999998224, 0.000000000000000000, 0.000000000000000000 ) ) ;
#20 = COLOUR_RGB ( '',0.8274509803921568096, 0.8392156862745098200, 0.8274509803921568096 ) ;
#21 = CARTESIAN_POINT ( 'NONE',  ( 0.7999999999999998224, 0.000000000000000000, 2.499999999999998224 ) ) ;
#22 = ORIENTED_EDGE ( 'NONE', *, *, #16, .T. ) ;
#23 = DIRECTION ( 'NONE',  ( -1.000000000000000000, -0.000000000000000000, -0.000000000000000000 ) ) ;
#24 = EDGE_LOOP ( 'NONE', ( #223 ) ) ;
#25 = CARTESIAN_POINT ( 'NONE',  ( 16.50000000000000000, 0.000000000000000000, 0.000000000000000000 ) ) ;
#26 =( GEOMETRIC_REPRESENTATION_CONTEXT ( 3 ) GLOBAL_UNCERTAINTY_ASSIGNED_CONTEXT ( ( #64 ) ) GLOBAL_UNIT_ASSIGNED_CONTEXT ( ( #67, #66, #143 ) ) REPRESENTATION_CONTEXT ( 'NONE', 'WORKASPACE' ) );
#27 = EDGE_CURVE ( 'NONE', #61, #61, #126, .T. ) ;
#28 = VERTEX_POINT ( 'NONE', #159 ) ;
#29 = CARTESIAN_POINT ( 'NONE',  ( 0.000000000000000000, 0.000000000000000000, 0.000000000000000000 ) ) ;
#30 = CLOSED_SHELL ( 'NONE', ( #183, #134, #47, #231, #221, #163, #128, #58 ) ) ;
#31 = DIRECTION ( 'NONE',  ( 0.000000000000000000, 0.000000000000000000, 1.000000000000000000 ) ) ;
#32 = PRESENTATION_LAYER_ASSIGNMENT (  '', '', ( #165 ) ) ;
#33 = EDGE_CURVE ( 'NONE', #87, #87, #68, .T. ) ;
#34 = DIRECTION ( 'NONE',  ( 0.000000000000000000, 0.000000000000000000, 1.000000000000000000 ) ) ;
#35 = CARTESIAN_POINT ( 'NONE',  ( 2.254037979103589162, -0.2609847209593670336, -2.488086150295514720 ) ) ;
#36 = CARTESIAN_POINT ( 'NONE',  ( 2.200053002966560811, 0.1308991009393400684, -2.499989399407521962 ) ) ;
#37 = EDGE_LOOP ( 'NONE', ( #41 ) ) ;
#38 = EDGE_LOOP ( 'NONE', ( #62 ) ) ;
#39 = VERTEX_POINT ( 'NONE', #117 ) ;
#40 = PRODUCT_DEFINITION ( 'UNKNOWN', '', #50, #109 ) ;
#41 = ORIENTED_EDGE ( 'NONE', *, *, #205, .F. ) ;
#42 = FACE_BOUND ( 'NONE', #83, .T. ) ;
#43 = EDGE_LOOP ( 'NONE', ( #212 ) ) ;
#44 = CARTESIAN_POINT ( 'NONE',  ( 16.50000000000000000, 0.000000000000000000, 0.000000000000000000 ) ) ;
#45 = FACE_BOUND ( 'NONE', #156, .T. ) ;
#46 = AXIS2_PLACEMENT_3D ( 'NONE', #12, #95, #98 ) ;
#47 = ADVANCED_FACE ( 'NONE', ( #112, #52 ), #201, .T. ) ;
#48 = APPLICATION_CONTEXT ( 'automotive_design' ) ;
#49 = MECHANICAL_DESIGN_GEOMETRIC_PRESENTATION_REPRESENTATION (  '', ( #158 ), #91 ) ;
#50 = PRODUCT_DEFINITION_FORMATION_WITH_SPECIFIED_SOURCE ( 'ANY', '', #88, .NOT_KNOWN. ) ;
#51 = APPLICATION_CONTEXT ( 'automotive_design' ) ;
#52 = FACE_OUTER_BOUND ( 'NONE', #24, .T. ) ;
#53 = CYLINDRICAL_SURFACE ( 'NONE', #182, 0.5000000000000000000 ) ;
#54 = CARTESIAN_POINT ( 'NONE',  ( 2.569499459184383383, 0.5000777737551841406, -2.449473867284810868 ) ) ;
#55 = CARTESIAN_POINT ( 'NONE',  ( 2.831713795300136116, -0.5000930959761533678, -2.449470739651555817 ) ) ;
#56 = SURFACE_STYLE_USAGE ( .BOTH. , #220 ) ;
#57 = CARTESIAN_POINT ( 'NONE',  ( 2.831713795300136116, 0.5000930959761533678, 2.449470739651555817 ) ) ;
#58 = ADVANCED_FACE ( 'NONE', ( #185, #17 ), #53, .F. ) ;
#59 = CARTESIAN_POINT ( 'NONE',  ( 16.00000000000000000, 0.000000000000000000, 0.000000000000000000 ) ) ;
#60 = CARTESIAN_POINT ( 'NONE',  ( 2.831095826854612696, -0.4999220490620657764, 2.449505654448818515 ) ) ;
#61 = VERTEX_POINT ( 'NONE', #84 ) ;
#62 = ORIENTED_EDGE ( 'NONE', *, *, #90, .F. ) ;
#63 = FACE_OUTER_BOUND ( 'NONE', #37, .T. ) ;
#64 = UNCERTAINTY_MEASURE_WITH_UNIT (LENGTH_MEASURE( 1.000000000000000082E-05 ), #67, 'distance_accuracy_value', 'NONE');
#65 = EDGE_LOOP ( 'NONE', ( #142 ) ) ;
#66 =( NAMED_UNIT ( * ) PLANE_ANGLE_UNIT ( ) SI_UNIT ( $, .RADIAN. ) );
#67 =( LENGTH_UNIT ( ) NAMED_UNIT ( * ) SI_UNIT ( .MILLI., .METRE. ) );
#68 = CIRCLE ( 'NONE', #14, 2.500000000000000444 ) ;
#69 = SHAPE_DEFINITION_REPRESENTATION ( #211, #216 ) ;
#70 = FILL_AREA_STYLE ('',( #233 ) ) ;
#71 =( NAMED_UNIT ( * ) SI_UNIT ( $, .STERADIAN. ) SOLID_ANGLE_UNIT ( ) );
#72 = CIRCLE ( 'NONE', #7, 4.000000000000000000 ) ;
#73 = CARTESIAN_POINT ( 'NONE',  ( 2.699999999999999289, -2.407412430484044816E-32, -4.000000000000000000 ) ) ;
#74 = CARTESIAN_POINT ( 'NONE',  ( 3.199999999999998845, 0.1324873057991781122, -2.499999999999999112 ) ) ;
#75 = CARTESIAN_POINT ( 'NONE',  ( 3.199999999999999734, -1.355252715606880543E-17, -2.500000000000000000 ) ) ;
#76 = DIRECTION ( 'NONE',  ( 1.000000000000000000, 0.000000000000000000, 0.000000000000000000 ) ) ;
#77 = CARTESIAN_POINT ( 'NONE',  ( 3.200000000000000622, 0.1324873057991781400, 2.500000000000000888 ) ) ;
#78 = MANIFOLD_SOLID_BREP ( 'Cut-Extrude1', #30 ) ;
#79 = FACE_BOUND ( 'NONE', #65, .T. ) ;
#80 = EDGE_LOOP ( 'NONE', ( #136 ) ) ;
#81 = DIRECTION ( 'NONE',  ( 0.000000000000000000, 0.000000000000000000, 1.000000000000000000 ) ) ;
#82 = UNCERTAINTY_MEASURE_WITH_UNIT (LENGTH_MEASURE( 1.000000000000000082E-05 ), #13, 'distance_accuracy_value', 'NONE');
#83 = EDGE_LOOP ( 'NONE', ( #195 ) ) ;
#84 = CARTESIAN_POINT ( 'NONE',  ( 0.000000000000000000, 0.000000000000000000, 1.700000000000001066 ) ) ;
#85 = CIRCLE ( 'NONE', #235, 2.499999999999998224 ) ;
#86 = ORIENTED_EDGE ( 'NONE', *, *, #121, .T. ) ;
#87 = VERTEX_POINT ( 'NONE', #230 ) ;
#88 = PRODUCT ( '76.04.01.0002', '76.04.01.0002', '', ( #232 ) ) ;
#89 = DIRECTION ( 'NONE',  ( -1.000000000000000000, -0.000000000000000000, -0.000000000000000000 ) ) ;
#90 = EDGE_CURVE ( 'NONE', #181, #181, #85, .T. ) ;
#91 =( GEOMETRIC_REPRESENTATION_CONTEXT ( 3 ) GLOBAL_UNCERTAINTY_ASSIGNED_CONTEXT ( ( #82 ) ) GLOBAL_UNIT_ASSIGNED_CONTEXT ( ( #13, #99, #97 ) ) REPRESENTATION_CONTEXT ( 'NONE', 'WORKASPACE' ) );
#92 = SURFACE_SIDE_STYLE ('',( #147 ) ) ;
#93 = DIRECTION ( 'NONE',  ( 1.000000000000000000, 0.000000000000000000, 0.000000000000000000 ) ) ;
#94 = PRODUCT_RELATED_PRODUCT_CATEGORY ( 'part', '', ( #88 ) ) ;
#95 = DIRECTION ( 'NONE',  ( -1.000000000000000000, -0.000000000000000000, -0.000000000000000000 ) ) ;
#96 = PRESENTATION_STYLE_ASSIGNMENT (( #56 ) ) ;
#97 =( NAMED_UNIT ( * ) SI_UNIT ( $, .STERADIAN. ) SOLID_ANGLE_UNIT ( ) );
#98 = DIRECTION ( 'NONE',  ( 0.000000000000000000, 0.000000000000000000, 1.000000000000000000 ) ) ;
#99 =( NAMED_UNIT ( * ) PLANE_ANGLE_UNIT ( ) SI_UNIT ( $, .RADIAN. ) );
#100 = CARTESIAN_POINT ( 'NONE',  ( 2.567580345503921890, 0.4999066549052132435, 2.449508796765922813 ) ) ;
#101 = DIRECTION ( 'NONE',  ( 0.000000000000000000, 0.000000000000000000, -1.000000000000000000 ) ) ;
#102 = CIRCLE ( 'NONE', #236, 3.499999999999999556 ) ;
#103 = EDGE_LOOP ( 'NONE', ( #140 ) ) ;
#104 = CARTESIAN_POINT ( 'NONE',  ( 16.00000000000000000, 0.000000000000000000, 4.000000000000000000 ) ) ;
#105 = CARTESIAN_POINT ( 'NONE',  ( 3.199999999999999734, 1.355252715606880543E-17, 2.500000000000000000 ) ) ;
#106 = DIRECTION ( 'NONE',  ( 0.000000000000000000, 0.000000000000000000, 1.000000000000000000 ) ) ;
#107 = CARTESIAN_POINT ( 'NONE',  ( 3.199999999999998845, -0.1324873057991781122, 2.499999999999999112 ) ) ;
#108 = DIRECTION ( 'NONE',  ( -0.000000000000000000, 0.000000000000000000, 1.000000000000000000 ) ) ;
#109 = PRODUCT_DEFINITION_CONTEXT ( 'detailed design', #51, 'design' ) ;
#110 = AXIS2_PLACEMENT_3D ( 'NONE', #4, #23, #196 ) ;
#111 = DIRECTION ( 'NONE',  ( -1.000000000000000000, -0.000000000000000000, -0.000000000000000000 ) ) ;
#112 = FACE_OUTER_BOUND ( 'NONE', #138, .T. ) ;
#113 = DIRECTION ( 'NONE',  ( 0.000000000000000000, 0.000000000000000000, 1.000000000000000000 ) ) ;
#114 = CARTESIAN_POINT ( 'NONE',  ( 3.200000000000000622, -0.1324873057991781400, -2.500000000000000888 ) ) ;
#115 = EDGE_LOOP ( 'NONE', ( #86 ) ) ;
#116 = EDGE_LOOP ( 'NONE', ( #18 ) ) ;
#117 = CARTESIAN_POINT ( 'NONE',  ( 15.00000000000000000, 0.000000000000000000, 4.000000000000000000 ) ) ;
#118 = PRESENTATION_LAYER_ASSIGNMENT (  '', '', ( #158 ) ) ;
#119 = CARTESIAN_POINT ( 'NONE',  ( 2.439485991796681130, -0.4465514287584768094, 2.461585287686177459 ) ) ;
#120 = FACE_BOUND ( 'NONE', #157, .T. ) ;
#121 = EDGE_CURVE ( 'NONE', #28, #28, #166, .T. ) ;
#122 = ORIENTED_EDGE ( 'NONE', *, *, #33, .T. ) ;
#123 = DIRECTION ( 'NONE',  ( 0.000000000000000000, 0.000000000000000000, 1.000000000000000000 ) ) ;
#124 = CARTESIAN_POINT ( 'NONE',  ( 15.00000000000000000, 4.000000000000000000, 0.000000000000000000 ) ) ;
#125 =( LENGTH_UNIT ( ) NAMED_UNIT ( * ) SI_UNIT ( .MILLI., .METRE. ) );
#126 = CIRCLE ( 'NONE', #127, 1.700000000000001066 ) ;
#127 = AXIS2_PLACEMENT_3D ( 'NONE', #167, #222, #34 ) ;
#128 = ADVANCED_FACE ( 'NONE', ( #190 ), #170, .F. ) ;
#129 = DIRECTION ( 'NONE',  ( 0.000000000000000000, 0.000000000000000000, 1.000000000000000000 ) ) ;
#130 = CARTESIAN_POINT ( 'NONE',  ( 3.145504019641935933, 0.2616304439484700151, -2.488007600895258076 ) ) ;
#131 = CARTESIAN_POINT ( 'NONE',  ( 2.253564455545263634, 0.2607125460038317022, -2.488139721847524299 ) ) ;
#132 = CARTESIAN_POINT ( 'NONE',  ( 3.199999999999999734, -1.355252715606880543E-17, -2.500000000000000000 ) ) ;
#133 = CARTESIAN_POINT ( 'NONE',  ( 2.199947079138411699, 0.1304938726809627414, 2.500010584171482364 ) ) ;
#134 = ADVANCED_FACE ( 'NONE', ( #213, #42 ), #199, .T. ) ;
#135 = DIRECTION ( 'NONE',  ( 0.000000000000000000, 0.000000000000000000, 1.000000000000000000 ) ) ;
#136 = ORIENTED_EDGE ( 'NONE', *, *, #11, .F. ) ;
#137 = CYLINDRICAL_SURFACE ( 'NONE', #110, 2.499999999999999556 ) ;
#138 = EDGE_LOOP ( 'NONE', ( #204 ) ) ;
#139 = DIRECTION ( 'NONE',  ( -1.000000000000000000, -0.000000000000000000, -0.000000000000000000 ) ) ;
#140 = ORIENTED_EDGE ( 'NONE', *, *, #184, .F. ) ;
#141 = PLANE ( 'NONE',  #6 ) ;
#142 = ORIENTED_EDGE ( 'NONE', *, *, #33, .F. ) ;
#143 =( NAMED_UNIT ( * ) SI_UNIT ( $, .STERADIAN. ) SOLID_ANGLE_UNIT ( ) );
#144 = APPLICATION_PROTOCOL_DEFINITION ( 'draft international standard', 'automotive_design', 1998, #51 ) ;
#145 = CONICAL_SURFACE ( 'NONE', #178, 2.499999999999998224, 0.7853981633974467247 ) ;
#146 = COLOUR_RGB ( '',0.8274509803921568096, 0.8392156862745098200, 0.8274509803921568096 ) ;
#147 = SURFACE_STYLE_FILL_AREA ( #70 ) ;
#148 = CARTESIAN_POINT ( 'NONE',  ( 2.199947079138411699, -0.1304938726809627414, -2.500010584171482364 ) ) ;
#149 = DIRECTION ( 'NONE',  ( -1.000000000000000000, -0.000000000000000000, -0.000000000000000000 ) ) ;
#150 = CARTESIAN_POINT ( 'NONE',  ( 2.961496328499957809, 0.4455827542655097506, -2.461724663810803460 ) ) ;
#151 = CARTESIAN_POINT ( 'NONE',  ( 2.438242713232575909, -0.4455090026928817948, -2.461748858918427540 ) ) ;
#152 =( GEOMETRIC_REPRESENTATION_CONTEXT ( 3 ) GLOBAL_UNCERTAINTY_ASSIGNED_CONTEXT ( ( #180 ) ) GLOBAL_UNIT_ASSIGNED_CONTEXT ( ( #125, #198, #71 ) ) REPRESENTATION_CONTEXT ( 'NONE', 'WORKASPACE' ) );
#153 = CARTESIAN_POINT ( 'NONE',  ( 3.145277868219310768, -0.2619658156351857281, -2.487967640821406867 ) ) ;
#154 = CARTESIAN_POINT ( 'NONE',  ( 3.199999999999999734, 1.355252715606880543E-17, 2.500000000000000000 ) ) ;
#155 = DIRECTION ( 'NONE',  ( 0.000000000000000000, 0.000000000000000000, -1.000000000000000000 ) ) ;
#156 = EDGE_LOOP ( 'NONE', ( #207 ) ) ;
#157 = EDGE_LOOP ( 'NONE', ( #242 ) ) ;
#158 = STYLED_ITEM ( 'NONE', ( #96 ), #78 ) ;
#159 = CARTESIAN_POINT ( 'NONE',  ( 3.199999999999999289, -2.407412430484044816E-32, -2.499999999999999556 ) ) ;
#160 = AXIS2_PLACEMENT_3D ( 'NONE', #29, #31, #93 ) ;
#161 = EDGE_LOOP ( 'NONE', ( #122 ) ) ;
#162 = DIRECTION ( 'NONE',  ( 1.000000000000000000, 0.000000000000000000, 0.000000000000000000 ) ) ;
#163 = ADVANCED_FACE ( 'NONE', ( #120, #210 ), #145, .T. ) ;
#164 = APPLICATION_PROTOCOL_DEFINITION ( 'draft international standard', 'automotive_design', 1998, #48 ) ;
#165 = STYLED_ITEM ( 'NONE', ( #234 ), #216 ) ;
#166 = B_SPLINE_CURVE_WITH_KNOTS ( 'NONE', 3,
 ( #75, #74, #130, #150, #219, #54, #189, #131, #36, #148, #35, #151, #15, #55, #217, #153, #114, #132 ),
 .UNSPECIFIED., .T., .F.,
 ( 4, 2, 2, 2, 2, 2, 2, 2, 4 ),
 ( 0.000000000000000000, 0.0003917458393949296326, 0.0007834916787898592652, 0.001175237518184788898, 0.001566983357579718530, 0.001958729196974648163, 0.002350475036369577796, 0.002742220875764507428, 0.003133966715159437061 ),
 .UNSPECIFIED. ) ;
#167 = CARTESIAN_POINT ( 'NONE',  ( 0.000000000000000000, 0.000000000000000000, 0.000000000000000000 ) ) ;
#168 = CIRCLE ( 'NONE', #46, 4.000000000000000000 ) ;
#169 = FILL_AREA_STYLE ('',( #200 ) ) ;
#170 = PLANE ( 'NONE',  #10 ) ;
#171 = CARTESIAN_POINT ( 'NONE',  ( 3.145277868219310768, 0.2619658156351857281, 2.487967640821406867 ) ) ;
#172 = FACE_OUTER_BOUND ( 'NONE', #38, .T. ) ;
#173 = EDGE_LOOP ( 'NONE', ( #22 ) ) ;
#174 = PLANE ( 'NONE',  #239 ) ;
#175 = CARTESIAN_POINT ( 'NONE',  ( 2.438242713232575909, 0.4455090026928817948, 2.461748858918427540 ) ) ;
#176 = FACE_BOUND ( 'NONE', #115, .T. ) ;
#177 = CARTESIAN_POINT ( 'NONE',  ( 2.569499459184383383, -0.5000777737551841406, 2.449473867284810868 ) ) ;
#178 = AXIS2_PLACEMENT_3D ( 'NONE', #19, #162, #197 ) ;
#179 = VERTEX_POINT ( 'NONE', #8 ) ;
#180 = UNCERTAINTY_MEASURE_WITH_UNIT (LENGTH_MEASURE( 1.000000000000000082E-05 ), #125, 'distance_accuracy_value', 'NONE');
#181 = VERTEX_POINT ( 'NONE', #21 ) ;
#182 = AXIS2_PLACEMENT_3D ( 'NONE', #73, #186, #237 ) ;
#183 = ADVANCED_FACE ( 'NONE', ( #63 ), #141, .F. ) ;
#184 = EDGE_CURVE ( 'NONE', #228, #228, #72, .T. ) ;
#185 = FACE_OUTER_BOUND ( 'NONE', #116, .T. ) ;
#186 = DIRECTION ( 'NONE',  ( -0.000000000000000000, -0.000000000000000000, 1.000000000000000000 ) ) ;
#187 = B_SPLINE_CURVE_WITH_KNOTS ( 'NONE', 3,
 ( #105, #107, #229, #225, #60, #177, #119, #192, #209, #133, #191, #175, #100, #57, #3, #171, #77, #154 ),
 .UNSPECIFIED., .T., .F.,
 ( 4, 2, 2, 2, 2, 2, 2, 2, 4 ),
 ( 0.000000000000000000, 0.0003917458393949296326, 0.0007834916787898592652, 0.001175237518184788898, 0.001566983357579718530, 0.001958729196974648163, 0.002350475036369577796, 0.002742220875764507428, 0.003133966715159437061 ),
 .UNSPECIFIED. ) ;
#188 = MECHANICAL_DESIGN_GEOMETRIC_PRESENTATION_REPRESENTATION (  '', ( #165 ), #152 ) ;
#189 = CARTESIAN_POINT ( 'NONE',  ( 2.439485991796681130, 0.4465514287584768094, -2.461585287686177459 ) ) ;
#190 = FACE_OUTER_BOUND ( 'NONE', #227, .T. ) ;
#191 = CARTESIAN_POINT ( 'NONE',  ( 2.254037979103589162, 0.2609847209593670336, 2.488086150295514720 ) ) ;
#192 = CARTESIAN_POINT ( 'NONE',  ( 2.253564455545263634, -0.2607125460038317022, 2.488139721847524299 ) ) ;
#193 = DIRECTION ( 'NONE',  ( -1.000000000000000000, -0.000000000000000000, -0.000000000000000000 ) ) ;
#194 = FACE_OUTER_BOUND ( 'NONE', #161, .T. ) ;
#195 = ORIENTED_EDGE ( 'NONE', *, *, #205, .T. ) ;
#196 = DIRECTION ( 'NONE',  ( 0.000000000000000000, 0.000000000000000000, 1.000000000000000000 ) ) ;
#197 = DIRECTION ( 'NONE',  ( 0.000000000000000000, 0.000000000000000000, -1.000000000000000000 ) ) ;
#198 =( NAMED_UNIT ( * ) PLANE_ANGLE_UNIT ( ) SI_UNIT ( $, .RADIAN. ) );
#199 = CONICAL_SURFACE ( 'NONE', #215, 3.499999999999999556, 0.7853981633974482790 ) ;
#200 = FILL_AREA_STYLE_COLOUR ( '', #20 ) ;
#201 = CYLINDRICAL_SURFACE ( 'NONE', #202, 4.000000000000000000 ) ;
#202 = AXIS2_PLACEMENT_3D ( 'NONE', #206, #218, #113 ) ;
#203 = SURFACE_STYLE_FILL_AREA ( #169 ) ;
#204 = ORIENTED_EDGE ( 'NONE', *, *, #16, .F. ) ;
#205 = EDGE_CURVE ( 'NONE', #2, #2, #102, .T. ) ;
#206 = CARTESIAN_POINT ( 'NONE',  ( 0.000000000000000000, 0.000000000000000000, 0.000000000000000000 ) ) ;
#207 = ORIENTED_EDGE ( 'NONE', *, *, #11, .T. ) ;
#208 = DIRECTION ( 'NONE',  ( 1.000000000000000000, 0.000000000000000000, 0.000000000000000000 ) ) ;
#209 = CARTESIAN_POINT ( 'NONE',  ( 2.200053002966560811, -0.1308991009393400684, 2.499989399407521962 ) ) ;
#210 = FACE_OUTER_BOUND ( 'NONE', #43, .T. ) ;
#211 = PRODUCT_DEFINITION_SHAPE ( 'NONE', 'NONE',  #40 ) ;
#212 = ORIENTED_EDGE ( 'NONE', *, *, #90, .T. ) ;
#213 = FACE_OUTER_BOUND ( 'NONE', #103, .T. ) ;
#214 = SURFACE_STYLE_USAGE ( .BOTH. , #92 ) ;
#215 = AXIS2_PLACEMENT_3D ( 'NONE', #25, #89, #106 ) ;
#216 = ADVANCED_BREP_SHAPE_REPRESENTATION ( '76.04.01.0002', ( #78, #160 ), #26 ) ;
#217 = CARTESIAN_POINT ( 'NONE',  ( 2.961301387455566925, -0.4456680978050124864, -2.461704494234577378 ) ) ;
#218 = DIRECTION ( 'NONE',  ( -1.000000000000000000, -0.000000000000000000, -0.000000000000000000 ) ) ;
#219 = CARTESIAN_POINT ( 'NONE',  ( 2.831095826854612696, 0.4999220490620657764, -2.449505654448818515 ) ) ;
#220 = SURFACE_SIDE_STYLE ('',( #203 ) ) ;
#221 = ADVANCED_FACE ( 'NONE', ( #45, #176, #172, #194 ), #137, .T. ) ;
#222 = DIRECTION ( 'NONE',  ( -1.000000000000000000, -0.000000000000000000, -0.000000000000000000 ) ) ;
#223 = ORIENTED_EDGE ( 'NONE', *, *, #184, .T. ) ;
#224 = CARTESIAN_POINT ( 'NONE',  ( 16.50000000000000000, 0.000000000000000000, 0.000000000000000000 ) ) ;
#225 = CARTESIAN_POINT ( 'NONE',  ( 2.961496328499957809, -0.4455827542655097506, 2.461724663810803460 ) ) ;
#226 = CARTESIAN_POINT ( 'NONE',  ( 16.50000000000000000, 0.000000000000000000, 3.499999999999999556 ) ) ;
#227 = EDGE_LOOP ( 'NONE', ( #5 ) ) ;
#228 = VERTEX_POINT ( 'NONE', #104 ) ;
#229 = CARTESIAN_POINT ( 'NONE',  ( 3.145504019641935933, -0.2616304439484700151, 2.488007600895258076 ) ) ;
#230 = CARTESIAN_POINT ( 'NONE',  ( 15.00000000000000000, 0.000000000000000000, 2.500000000000000444 ) ) ;
#231 = ADVANCED_FACE ( 'NONE', ( #79, #1 ), #174, .F. ) ;
#232 = PRODUCT_CONTEXT ( 'NONE', #48, 'mechanical' ) ;
#233 = FILL_AREA_STYLE_COLOUR ( '', #146 ) ;
#234 = PRESENTATION_STYLE_ASSIGNMENT (( #214 ) ) ;
#235 = AXIS2_PLACEMENT_3D ( 'NONE', #240, #149, #129 ) ;
#236 = AXIS2_PLACEMENT_3D ( 'NONE', #44, #139, #123 ) ;
#237 = DIRECTION ( 'NONE',  ( 1.000000000000000000, 0.000000000000000000, 0.000000000000000000 ) ) ;
#238 = CARTESIAN_POINT ( 'NONE',  ( 15.00000000000000000, 0.000000000000000000, 0.000000000000000000 ) ) ;
#239 = AXIS2_PLACEMENT_3D ( 'NONE', #124, #208, #101 ) ;
#240 = CARTESIAN_POINT ( 'NONE',  ( 0.7999999999999998224, 0.000000000000000000, 0.000000000000000000 ) ) ;
#241 = CARTESIAN_POINT ( 'NONE',  ( 0.000000000000000000, 1.700000000000001066, 0.000000000000000000 ) ) ;
#242 = ORIENTED_EDGE ( 'NONE', *, *, #27, .F. ) ;
ENDSEC;
END-ISO-10303-21;
