ISO-10303-21;
HEADER;
FILE_DESCRIPTION (( 'STEP AP214' ),
    '1' );
FILE_NAME ('75.99.10.0002L.step',
    '2021-04-02T17:57:54',
    ( '' ),
    ( '' ),
    'SwSTEP 2.0',
    'SolidWorks 2021',
    '' );
FILE_SCHEMA (( 'AUTOMOTIVE_DESIGN' ));
ENDSEC;

DATA;
#1 = ADVANCED_FACE ( 'NONE', ( #276, #36 ), #139, .T. ) ;
#2 = EDGE_LOOP ( 'NONE', ( #198 ) ) ;
#3 = FACE_OUTER_BOUND ( 'NONE', #315, .T. ) ;
#4 = ORIENTED_EDGE ( 'NONE', *, *, #125, .F. ) ;
#5 = FACE_OUTER_BOUND ( 'NONE', #77, .T. ) ;
#6 = DIRECTION ( 'NONE',  ( 0.000000000000000000, 0.000000000000000000, 1.000000000000000000 ) ) ;
#7 =( GEOMETRIC_REPRESENTATION_CONTEXT ( 3 ) GLOBAL_UNCERTAINTY_ASSIGNED_CONTEXT ( ( #123 ) ) GLOBAL_UNIT_ASSIGNED_CONTEXT ( ( #200, #342, #262 ) ) REPRESENTATION_CONTEXT ( 'NONE', 'WORKASPACE' ) );
#8 = EDGE_LOOP ( 'NONE', ( #303, #239 ) ) ;
#9 = VERTEX_POINT ( 'NONE', #341 ) ;
#10 = CARTESIAN_POINT ( 'NONE',  ( 9.893262133491659863E-18, -29.20000000000000995, 0.000000000000000000 ) ) ;
#11 = AXIS2_PLACEMENT_3D ( 'NONE', #290, #90, #227 ) ;
#12 = CARTESIAN_POINT ( 'NONE',  ( 4.799999999999998934, -30.00000000000000000, 0.000000000000000000 ) ) ;
#13 = DIRECTION ( 'NONE',  ( 1.000000000000000000, 0.000000000000000000, 0.000000000000000000 ) ) ;
#14 = VERTEX_POINT ( 'NONE', #37 ) ;
#15 = AXIS2_PLACEMENT_3D ( 'NONE', #320, #177, #282 ) ;
#16 = CARTESIAN_POINT ( 'NONE',  ( 4.286263797015736496E-15, -30.00000000000000000, 0.000000000000000000 ) ) ;
#17 = DIRECTION ( 'NONE',  ( 1.000000000000000000, 2.406299903624826993E-16, 0.000000000000000000 ) ) ;
#18 = EDGE_LOOP ( 'NONE', ( #132 ) ) ;
#19 = MECHANICAL_DESIGN_GEOMETRIC_PRESENTATION_REPRESENTATION (  '', ( #82 ), #55 ) ;
#20 = DIRECTION ( 'NONE',  ( -1.000000000000000000, -0.000000000000000000, -0.000000000000000000 ) ) ;
#21 = DIRECTION ( 'NONE',  ( 2.449293598294706414E-16, -1.000000000000000000, -0.000000000000000000 ) ) ;
#22 = DIRECTION ( 'NONE',  ( 0.000000000000000000, 0.000000000000000000, 1.000000000000000000 ) ) ;
#23 = CARTESIAN_POINT ( 'NONE',  ( 0.000000000000000000, -30.00000000000000000, 0.000000000000000000 ) ) ;
#24 =( NAMED_UNIT ( * ) PLANE_ANGLE_UNIT ( ) SI_UNIT ( $, .RADIAN. ) );
#25 = FACE_OUTER_BOUND ( 'NONE', #196, .T. ) ;
#26 = DIRECTION ( 'NONE',  ( 1.000000000000000000, 0.000000000000000000, 0.000000000000000000 ) ) ;
#27 = DIRECTION ( 'NONE',  ( 0.000000000000000000, 0.000000000000000000, 1.000000000000000000 ) ) ;
#28 = EDGE_CURVE ( 'NONE', #280, #280, #335, .T. ) ;
#29 = ORIENTED_EDGE ( 'NONE', *, *, #125, .T. ) ;
#30 = ORIENTED_EDGE ( 'NONE', *, *, #318, .F. ) ;
#31 = PRESENTATION_LAYER_ASSIGNMENT (  '', '', ( #82 ) ) ;
#32 = CARTESIAN_POINT ( 'NONE',  ( 0.8000000000000003775, 0.000000000000000000, 6.878226515607056335 ) ) ;
#33 = CYLINDRICAL_SURFACE ( 'NONE', #264, 6.878226515607056335 ) ;
#34 = DIRECTION ( 'NONE',  ( 1.000000000000000000, 0.000000000000000000, 0.000000000000000000 ) ) ;
#35 = DIRECTION ( 'NONE',  ( 1.000000000000000000, 2.449293598294706414E-16, 0.000000000000000000 ) ) ;
#36 = FACE_OUTER_BOUND ( 'NONE', #310, .T. ) ;
#37 = CARTESIAN_POINT ( 'NONE',  ( 0.7999999999999994893, 0.000000000000000000, 7.378226515607055447 ) ) ;
#38 = VERTEX_POINT ( 'NONE', #240 ) ;
#39 = FACE_OUTER_BOUND ( 'NONE', #269, .T. ) ;
#40 = DIRECTION ( 'NONE',  ( 1.000000000000000000, 0.000000000000000000, 0.000000000000000000 ) ) ;
#41 = EDGE_LOOP ( 'NONE', ( #57 ) ) ;
#42 = AXIS2_PLACEMENT_3D ( 'NONE', #202, #45, #205 ) ;
#43 = PRESENTATION_STYLE_ASSIGNMENT (( #258 ) ) ;
#44 = CIRCLE ( 'NONE', #129, 7.132496056781244320 ) ;
#45 = DIRECTION ( 'NONE',  ( 1.000000000000000000, -0.000000000000000000, -0.000000000000000000 ) ) ;
#46 = DIRECTION ( 'NONE',  ( -1.236657766686475779E-17, -1.000000000000000000, -0.000000000000000000 ) ) ;
#47 = FACE_OUTER_BOUND ( 'NONE', #18, .T. ) ;
#48 = CARTESIAN_POINT ( 'NONE',  ( 0.000000000000000000, 0.000000000000000000, 0.000000000000000000 ) ) ;
#49 = CONICAL_SURFACE ( 'NONE', #152, 4.799999999999998934, 0.7853981633974548293 ) ;
#50 = DIRECTION ( 'NONE',  ( 1.000000000000000000, 0.000000000000000000, 0.000000000000000000 ) ) ;
#51 = CIRCLE ( 'NONE', #190, 6.499999999999998224 ) ;
#52 = AXIS2_PLACEMENT_3D ( 'NONE', #304, #275, #35 ) ;
#53 = ORIENTED_EDGE ( 'NONE', *, *, #273, .T. ) ;
#54 = CYLINDRICAL_SURFACE ( 'NONE', #261, 7.378226515607055447 ) ;
#55 =( GEOMETRIC_REPRESENTATION_CONTEXT ( 3 ) GLOBAL_UNCERTAINTY_ASSIGNED_CONTEXT ( ( #291 ) ) GLOBAL_UNIT_ASSIGNED_CONTEXT ( ( #156, #24, #266 ) ) REPRESENTATION_CONTEXT ( 'NONE', 'WORKASPACE' ) );
#56 = CARTESIAN_POINT ( 'NONE',  ( -1.000000000000000444, 6.878226515607056335, 0.000000000000000000 ) ) ;
#57 = ORIENTED_EDGE ( 'NONE', *, *, #187, .T. ) ;
#58 = CIRCLE ( 'NONE', #178, 7.378226515607055447 ) ;
#59 = CARTESIAN_POINT ( 'NONE',  ( -1.000000000000000000, 0.000000000000000000, 0.000000000000000000 ) ) ;
#60 = FACE_OUTER_BOUND ( 'NONE', #8, .T. ) ;
#61 = ADVANCED_FACE ( 'NONE', ( #122, #319 ), #222, .F. ) ;
#62 = FACE_BOUND ( 'NONE', #285, .T. ) ;
#63 = APPLICATION_PROTOCOL_DEFINITION ( 'draft international standard', 'automotive_design', 1998, #225 ) ;
#64 = ORIENTED_EDGE ( 'NONE', *, *, #28, .T. ) ;
#65 = DIRECTION ( 'NONE',  ( -0.000000000000000000, 0.000000000000000000, 1.000000000000000000 ) ) ;
#66 = SHAPE_DEFINITION_REPRESENTATION ( #126, #250 ) ;
#67 = DIRECTION ( 'NONE',  ( -1.000000000000000000, -2.406299903624826993E-16, -0.000000000000000000 ) ) ;
#68 = CIRCLE ( 'NONE', #358, 6.878226515607056335 ) ;
#69 = PLANE ( 'NONE',  #243 ) ;
#70 = FACE_OUTER_BOUND ( 'NONE', #110, .T. ) ;
#71 = DIRECTION ( 'NONE',  ( -1.000000000000000000, -0.000000000000000000, -0.000000000000000000 ) ) ;
#72 = CARTESIAN_POINT ( 'NONE',  ( 6.500000000000007994, -30.00000000000000000, -9.650000000000000355 ) ) ;
#73 = ORIENTED_EDGE ( 'NONE', *, *, #249, .F. ) ;
#74 = EDGE_CURVE ( 'NONE', #38, #38, #51, .T. ) ;
#75 = ORIENTED_EDGE ( 'NONE', *, *, #309, .T. ) ;
#76 = MANIFOLD_SOLID_BREP ( 'Cut-Revolve2', #244 ) ;
#77 = EDGE_LOOP ( 'NONE', ( #116 ) ) ;
#78 = DIRECTION ( 'NONE',  ( 0.000000000000000000, 0.000000000000000000, 1.000000000000000000 ) ) ;
#79 = UNCERTAINTY_MEASURE_WITH_UNIT (LENGTH_MEASURE( 1.000000000000000082E-05 ), #135, 'distance_accuracy_value', 'NONE');
#80 = EDGE_LOOP ( 'NONE', ( #121 ) ) ;
#81 = VERTEX_POINT ( 'NONE', #12 ) ;
#82 = STYLED_ITEM ( 'NONE', ( #102 ), #199 ) ;
#83 = EDGE_LOOP ( 'NONE', ( #334 ) ) ;
#84 = ORIENTED_EDGE ( 'NONE', *, *, #187, .F. ) ;
#85 = ADVANCED_FACE ( 'NONE', ( #39 ), #162, .F. ) ;
#86 = DIRECTION ( 'NONE',  ( 2.432140813211544812E-16, -1.000000000000000000, 0.000000000000000000 ) ) ;
#87 = DIRECTION ( 'NONE',  ( 1.000000000000000000, 2.449293598294706414E-16, 0.000000000000000000 ) ) ;
#88 = ORIENTED_EDGE ( 'NONE', *, *, #268, .F. ) ;
#89 = AXIS2_PLACEMENT_3D ( 'NONE', #338, #133, #87 ) ;
#90 = DIRECTION ( 'NONE',  ( -1.236657766686475779E-17, -1.000000000000000000, -0.000000000000000000 ) ) ;
#91 = CARTESIAN_POINT ( 'NONE',  ( 3.999999999999998224, -16.00000000000000000, 0.000000000000000000 ) ) ;
#92 = FILL_AREA_STYLE ('',( #287 ) ) ;
#93 = ORIENTED_EDGE ( 'NONE', *, *, #144, .F. ) ;
#94 = FACE_OUTER_BOUND ( 'NONE', #274, .T. ) ;
#95 = AXIS2_PLACEMENT_3D ( 'NONE', #179, #299, #50 ) ;
#96 = SURFACE_STYLE_USAGE ( .BOTH. , #150 ) ;
#97 = CYLINDRICAL_SURFACE ( 'NONE', #15, 6.500000000000004441 ) ;
#98 = CARTESIAN_POINT ( 'NONE',  ( 0.8000000000000003775, 0.000000000000000000, 0.000000000000000000 ) ) ;
#99 = UNCERTAINTY_MEASURE_WITH_UNIT (LENGTH_MEASURE( 1.000000000000000082E-05 ), #317, 'distance_accuracy_value', 'NONE');
#100 = DIRECTION ( 'NONE',  ( 0.000000000000000000, 0.000000000000000000, 1.000000000000000000 ) ) ;
#101 = DIRECTION ( 'NONE',  ( -1.000000000000000000, -2.406299903624826993E-16, 0.000000000000000000 ) ) ;
#102 = PRESENTATION_STYLE_ASSIGNMENT (( #292 ) ) ;
#103 = FACE_OUTER_BOUND ( 'NONE', #186, .T. ) ;
#104 = CARTESIAN_POINT ( 'NONE',  ( -1.000000000000000000, 0.000000000000000000, 0.000000000000000000 ) ) ;
#105 = ADVANCED_FACE ( 'NONE', ( ), #206, .T. ) ;
#106 = VERTEX_POINT ( 'NONE', #91 ) ;
#107 = EDGE_LOOP ( 'NONE', ( #29 ) ) ;
#108 = AXIS2_PLACEMENT_3D ( 'NONE', #228, #263, #354 ) ;
#109 = DIRECTION ( 'NONE',  ( -1.236657766686475779E-17, -1.000000000000000000, -0.000000000000000000 ) ) ;
#110 = EDGE_LOOP ( 'NONE', ( #238 ) ) ;
#111 = CARTESIAN_POINT ( 'NONE',  ( 4.000000000000000000, -29.20000000000000995, 0.000000000000000000 ) ) ;
#112 =( GEOMETRIC_REPRESENTATION_CONTEXT ( 3 ) GLOBAL_UNCERTAINTY_ASSIGNED_CONTEXT ( ( #99 ) ) GLOBAL_UNIT_ASSIGNED_CONTEXT ( ( #317, #260, #340 ) ) REPRESENTATION_CONTEXT ( 'NONE', 'WORKASPACE' ) );
#113 = ORIENTED_EDGE ( 'NONE', *, *, #309, .F. ) ;
#114 = DIRECTION ( 'NONE',  ( 1.224646799147353454E-16, -1.000000000000000000, 0.000000000000000000 ) ) ;
#115 = CARTESIAN_POINT ( 'NONE',  ( 1.800000000000000488, 0.000000000000000000, 7.378226515607055447 ) ) ;
#116 = ORIENTED_EDGE ( 'NONE', *, *, #74, .T. ) ;
#117 = AXIS2_PLACEMENT_3D ( 'NONE', #350, #22, #124 ) ;
#118 = PRESENTATION_STYLE_ASSIGNMENT (( #96 ) ) ;
#119 = CARTESIAN_POINT ( 'NONE',  ( 1.300000000000000711, 0.000000000000000000, 0.000000000000000000 ) ) ;
#120 = CIRCLE ( 'NONE', #134, 6.978226515607055092 ) ;
#121 = ORIENTED_EDGE ( 'NONE', *, *, #144, .T. ) ;
#122 = FACE_OUTER_BOUND ( 'NONE', #107, .T. ) ;
#123 = UNCERTAINTY_MEASURE_WITH_UNIT (LENGTH_MEASURE( 1.000000000000000082E-05 ), #200, 'distance_accuracy_value', 'NONE');
#124 = DIRECTION ( 'NONE',  ( 1.000000000000000000, 0.000000000000000000, 0.000000000000000000 ) ) ;
#125 = EDGE_CURVE ( 'NONE', #252, #252, #224, .T. ) ;
#126 = PRODUCT_DEFINITION_SHAPE ( 'NONE', 'NONE',  #175 ) ;
#127 = FACE_BOUND ( 'NONE', #2, .T. ) ;
#128 = SURFACE_STYLE_FILL_AREA ( #352 ) ;
#129 = AXIS2_PLACEMENT_3D ( 'NONE', #255, #17, #86 ) ;
#130 = CIRCLE ( 'NONE', #288, 6.878226515607056335 ) ;
#131 = MECHANICAL_DESIGN_GEOMETRIC_PRESENTATION_REPRESENTATION (  '', ( #184 ), #7 ) ;
#132 = ORIENTED_EDGE ( 'NONE', *, *, #268, .T. ) ;
#133 = DIRECTION ( 'NONE',  ( 0.000000000000000000, -0.000000000000000000, 1.000000000000000000 ) ) ;
#134 = AXIS2_PLACEMENT_3D ( 'NONE', #194, #67, #173 ) ;
#135 =( LENGTH_UNIT ( ) NAMED_UNIT ( * ) SI_UNIT ( .MILLI., .METRE. ) );
#136 = DIRECTION ( 'NONE',  ( 0.000000000000000000, 0.000000000000000000, -1.000000000000000000 ) ) ;
#137 = ADVANCED_FACE ( 'NONE', ( #314, #62 ), #197, .T. ) ;
#138 = VERTEX_POINT ( 'NONE', #32 ) ;
#139 = PLANE ( 'NONE',  #333 ) ;
#140 = DIRECTION ( 'NONE',  ( -1.000000000000000000, -0.000000000000000000, -0.000000000000000000 ) ) ;
#141 = DIRECTION ( 'NONE',  ( -1.000000000000000000, -0.000000000000000000, -0.000000000000000000 ) ) ;
#142 = PLANE ( 'NONE',  #52 ) ;
#143 = DIRECTION ( 'NONE',  ( 0.000000000000000000, 0.000000000000000000, 1.000000000000000000 ) ) ;
#144 = EDGE_CURVE ( 'NONE', #161, #161, #248, .T. ) ;
#145 = FILL_AREA_STYLE_COLOUR ( '', #321 ) ;
#146 = ORIENTED_EDGE ( 'NONE', *, *, #168, .F. ) ;
#147 = AXIS2_PLACEMENT_3D ( 'NONE', #253, #344, #143 ) ;
#148 = DIRECTION ( 'NONE',  ( 0.000000000000000000, 0.000000000000000000, 1.000000000000000000 ) ) ;
#149 = AXIS2_PLACEMENT_3D ( 'NONE', #10, #220, #13 ) ;
#150 = SURFACE_SIDE_STYLE ('',( #223 ) ) ;
#151 = ADVANCED_FACE ( 'NONE', ( #257, #94 ), #305, .F. ) ;
#152 = AXIS2_PLACEMENT_3D ( 'NONE', #265, #348, #26 ) ;
#153 = DIRECTION ( 'NONE',  ( 1.000000000000000000, 0.000000000000000000, 0.000000000000000000 ) ) ;
#154 = DIRECTION ( 'NONE',  ( 0.000000000000000000, 0.000000000000000000, -1.000000000000000000 ) ) ;
#155 = EDGE_CURVE ( 'NONE', #256, #256, #44, .T. ) ;
#156 =( LENGTH_UNIT ( ) NAMED_UNIT ( * ) SI_UNIT ( .MILLI., .METRE. ) );
#157 = MECHANICAL_DESIGN_GEOMETRIC_PRESENTATION_REPRESENTATION (  '', ( #297 ), #112 ) ;
#158 = CARTESIAN_POINT ( 'NONE',  ( 0.7999999999999994893, 0.000000000000000000, 0.000000000000000000 ) ) ;
#159 = PRESENTATION_LAYER_ASSIGNMENT (  '', '', ( #184 ) ) ;
#160 = ORIENTED_EDGE ( 'NONE', *, *, #289, .T. ) ;
#161 = VERTEX_POINT ( 'NONE', #331 ) ;
#162 = CONICAL_SURFACE ( 'NONE', #11, 3.999999999999998224, 1.047197551196599630 ) ;
#163 = EDGE_LOOP ( 'NONE', ( #113 ) ) ;
#164 = FACE_BOUND ( 'NONE', #328, .T. ) ;
#165 = ORIENTED_EDGE ( 'NONE', *, *, #168, .T. ) ;
#166 = CIRCLE ( 'NONE', #298, 7.378226515607055447 ) ;
#167 = APPLICATION_PROTOCOL_DEFINITION ( 'draft international standard', 'automotive_design', 1998, #183 ) ;
#168 = EDGE_CURVE ( 'NONE', #172, #172, #120, .T. ) ;
#169 = DIRECTION ( 'NONE',  ( 0.000000000000000000, 0.000000000000000000, 1.000000000000000000 ) ) ;
#170 = CARTESIAN_POINT ( 'NONE',  ( 6.400000000000002132, 0.000000000000000000, 6.878226515607056335 ) ) ;
#171 = CARTESIAN_POINT ( 'NONE',  ( 1.800000000000000488, 0.000000000000000000, 0.000000000000000000 ) ) ;
#172 = VERTEX_POINT ( 'NONE', #195 ) ;
#173 = DIRECTION ( 'NONE',  ( 2.485908808057513557E-16, -1.000000000000000000, 0.000000000000000000 ) ) ;
#174 = PRESENTATION_LAYER_ASSIGNMENT (  '', '', ( #297 ) ) ;
#175 = PRODUCT_DEFINITION ( 'UNKNOWN', '', #203, #286 ) ;
#176 = AXIS2_PLACEMENT_3D ( 'NONE', #48, #209, #353 ) ;
#177 = DIRECTION ( 'NONE',  ( 2.449293598294706414E-16, -1.000000000000000000, -0.000000000000000000 ) ) ;
#178 = AXIS2_PLACEMENT_3D ( 'NONE', #189, #218, #78 ) ;
#179 = CARTESIAN_POINT ( 'NONE',  ( 7.340747673148712267E-34, -30.00000000000000000, 0.000000000000000000 ) ) ;
#180 = CARTESIAN_POINT ( 'NONE',  ( -6.500000000000000000, 0.000000000000000000, 0.000000000000000000 ) ) ;
#181 = AXIS2_PLACEMENT_3D ( 'NONE', #119, #311, #114 ) ;
#182 = PRODUCT ( '75.99.10.0002L', '75.99.10.0002L', '', ( #221 ) ) ;
#183 = APPLICATION_CONTEXT ( 'automotive_design' ) ;
#184 = STYLED_ITEM ( 'NONE', ( #43 ), #250 ) ;
#185 = DIRECTION ( 'NONE',  ( 2.406299903624826993E-16, -1.000000000000000000, 0.000000000000000000 ) ) ;
#186 = EDGE_LOOP ( 'NONE', ( #213 ) ) ;
#187 = EDGE_CURVE ( 'NONE', #312, #312, #191, .T. ) ;
#188 = EDGE_LOOP ( 'NONE', ( #30 ) ) ;
#189 = CARTESIAN_POINT ( 'NONE',  ( 1.800000000000000488, 0.000000000000000000, 0.000000000000000000 ) ) ;
#190 = AXIS2_PLACEMENT_3D ( 'NONE', #16, #21, #40 ) ;
#191 = CIRCLE ( 'NONE', #343, 6.422616289332563788 ) ;
#192 = CARTESIAN_POINT ( 'NONE',  ( -1.000000000000000000, 0.000000000000000000, 6.422616289332563788 ) ) ;
#193 = EDGE_LOOP ( 'NONE', ( #217 ) ) ;
#194 = CARTESIAN_POINT ( 'NONE',  ( 6.500000000000001776, 0.000000000000000000, 0.000000000000000000 ) ) ;
#195 = CARTESIAN_POINT ( 'NONE',  ( 6.500000000000003553, -6.978226515607055092, 0.000000000000000000 ) ) ;
#196 = EDGE_LOOP ( 'NONE', ( #64 ) ) ;
#197 = PLANE ( 'NONE',  #219 ) ;
#198 = ORIENTED_EDGE ( 'NONE', *, *, #231, .T. ) ;
#199 = MANIFOLD_SOLID_BREP ( 'Revolve3', #302 ) ;
#200 =( LENGTH_UNIT ( ) NAMED_UNIT ( * ) SI_UNIT ( .MILLI., .METRE. ) );
#201 = ORIENTED_EDGE ( 'NONE', *, *, #273, .F. ) ;
#202 = CARTESIAN_POINT ( 'NONE',  ( 6.400000000000002132, 0.000000000000000000, 0.000000000000000000 ) ) ;
#203 = PRODUCT_DEFINITION_FORMATION_WITH_SPECIFIED_SOURCE ( 'ANY', '', #182, .NOT_KNOWN. ) ;
#204 = PRODUCT_RELATED_PRODUCT_CATEGORY ( 'part', '', ( #182 ) ) ;
#205 = DIRECTION ( 'NONE',  ( 0.000000000000000000, 0.000000000000000000, 1.000000000000000000 ) ) ;
#206 = TOROIDAL_SURFACE ( 'NONE', #181, 6.878226515607052782, 0.5000000000000013323 ) ;
#207 = FACE_OUTER_BOUND ( 'NONE', #163, .T. ) ;
#208 = ADVANCED_FACE ( 'NONE', ( #127, #229 ), #347, .T. ) ;
#209 = DIRECTION ( 'NONE',  ( -0.000000000000000000, 0.000000000000000000, -1.000000000000000000 ) ) ;
#210 = CIRCLE ( 'NONE', #270, 3.999999999999998224 ) ;
#211 = ADVANCED_FACE ( 'NONE', ( #207, #25 ), #232, .F. ) ;
#212 = DIRECTION ( 'NONE',  ( -1.000000000000000000, -0.000000000000000000, -0.000000000000000000 ) ) ;
#213 = ORIENTED_EDGE ( 'NONE', *, *, #74, .F. ) ;
#214 = FACE_OUTER_BOUND ( 'NONE', #188, .T. ) ;
#215 = DIRECTION ( 'NONE',  ( 1.000000000000000000, 0.000000000000000000, 0.000000000000000000 ) ) ;
#216 = FACE_OUTER_BOUND ( 'NONE', #83, .T. ) ;
#217 = ORIENTED_EDGE ( 'NONE', *, *, #28, .F. ) ;
#218 = DIRECTION ( 'NONE',  ( -1.000000000000000000, -0.000000000000000000, -0.000000000000000000 ) ) ;
#219 = AXIS2_PLACEMENT_3D ( 'NONE', #313, #226, #65 ) ;
#220 = DIRECTION ( 'NONE',  ( -1.236657766686475779E-17, -1.000000000000000000, -0.000000000000000000 ) ) ;
#221 = PRODUCT_CONTEXT ( 'NONE', #183, 'mechanical' ) ;
#222 = CYLINDRICAL_SURFACE ( 'NONE', #147, 6.878226515607056335 ) ;
#223 = SURFACE_STYLE_FILL_AREA ( #279 ) ;
#224 = CIRCLE ( 'NONE', #42, 6.878226515607056335 ) ;
#225 = APPLICATION_CONTEXT ( 'automotive_design' ) ;
#226 = DIRECTION ( 'NONE',  ( -1.000000000000000000, 0.000000000000000000, -0.000000000000000000 ) ) ;
#227 = DIRECTION ( 'NONE',  ( 1.000000000000000000, 0.000000000000000000, 0.000000000000000000 ) ) ;
#228 = CARTESIAN_POINT ( 'NONE',  ( -1.314659304694730033E-15, -7.132496056781241656, 0.000000000000000000 ) ) ;
#229 = FACE_OUTER_BOUND ( 'NONE', #327, .T. ) ;
#230 = FILL_AREA_STYLE_COLOUR ( '', #237 ) ;
#231 = EDGE_CURVE ( 'NONE', #138, #138, #68, .T. ) ;
#232 = CYLINDRICAL_SURFACE ( 'NONE', #307, 3.999999999999999112 ) ;
#233 = FACE_BOUND ( 'NONE', #193, .T. ) ;
#234 = DIRECTION ( 'NONE',  ( 1.000000000000000000, 0.000000000000000000, 0.000000000000000000 ) ) ;
#235 = ADVANCED_FACE ( 'NONE', ( #355 ), #295, .F. ) ;
#236 = AXIS2_PLACEMENT_3D ( 'NONE', #284, #251, #281 ) ;
#237 = COLOUR_RGB ( '',0.8274509803921568096, 0.8392156862745098200, 0.8274509803921568096 ) ;
#238 = ORIENTED_EDGE ( 'NONE', *, *, #155, .T. ) ;
#239 = ORIENTED_EDGE ( 'NONE', *, *, #155, .F. ) ;
#240 = CARTESIAN_POINT ( 'NONE',  ( 6.500000000000002665, -30.00000000000000000, 0.000000000000000000 ) ) ;
#241 = EDGE_LOOP ( 'NONE', ( #306 ) ) ;
#242 =( NAMED_UNIT ( * ) PLANE_ANGLE_UNIT ( ) SI_UNIT ( $, .RADIAN. ) );
#243 = AXIS2_PLACEMENT_3D ( 'NONE', #72, #101, #185 ) ;
#244 = CLOSED_SHELL ( 'NONE', ( #337, #300, #323, #259, #235, #61, #137, #356, #208, #277, #1, #151, #294, #211, #85 ) ) ;
#245 = CARTESIAN_POINT ( 'NONE',  ( 1.731320873361065875E-16, -16.00000000000000000, 0.000000000000000000 ) ) ;
#246 = EDGE_LOOP ( 'NONE', ( #330 ) ) ;
#247 = VERTEX_POINT ( 'NONE', #115 ) ;
#248 = CIRCLE ( 'NONE', #272, 6.878226515607056335 ) ;
#249 = EDGE_CURVE ( 'NONE', #9, #9, #130, .T. ) ;
#250 = ADVANCED_BREP_SHAPE_REPRESENTATION ( '75.99.10.0002L', ( #199, #76, #117 ), #293 ) ;
#251 = DIRECTION ( 'NONE',  ( 1.000000000000000000, -0.000000000000000000, -0.000000000000000000 ) ) ;
#252 = VERTEX_POINT ( 'NONE', #170 ) ;
#253 = CARTESIAN_POINT ( 'NONE',  ( -6.500000000000000000, 0.000000000000000000, 0.000000000000000000 ) ) ;
#254 = SURFACE_SIDE_STYLE ('',( #345 ) ) ;
#255 = CARTESIAN_POINT ( 'NONE',  ( 6.500000000000001776, 1.564094937356137842E-15, 0.000000000000000000 ) ) ;
#256 = VERTEX_POINT ( 'NONE', #322 ) ;
#257 = FACE_BOUND ( 'NONE', #271, .T. ) ;
#258 = SURFACE_STYLE_USAGE ( .BOTH. , #254 ) ;
#259 = ADVANCED_FACE ( 'NONE', ( #325, #70 ), #69, .F. ) ;
#260 =( NAMED_UNIT ( * ) PLANE_ANGLE_UNIT ( ) SI_UNIT ( $, .RADIAN. ) );
#261 = AXIS2_PLACEMENT_3D ( 'NONE', #308, #140, #329 ) ;
#262 =( NAMED_UNIT ( * ) SI_UNIT ( $, .STERADIAN. ) SOLID_ANGLE_UNIT ( ) );
#263 = DIRECTION ( 'NONE',  ( 2.449293598294706414E-16, -1.000000000000000000, -0.000000000000000000 ) ) ;
#264 = AXIS2_PLACEMENT_3D ( 'NONE', #180, #296, #351 ) ;
#265 = CARTESIAN_POINT ( 'NONE',  ( 7.340747673148712267E-34, -30.00000000000000000, 0.000000000000000000 ) ) ;
#266 =( NAMED_UNIT ( * ) SI_UNIT ( $, .STERADIAN. ) SOLID_ANGLE_UNIT ( ) );
#267 = AXIS2_PLACEMENT_3D ( 'NONE', #359, #153, #154 ) ;
#268 = EDGE_CURVE ( 'NONE', #81, #81, #316, .T. ) ;
#269 = EDGE_LOOP ( 'NONE', ( #75 ) ) ;
#270 = AXIS2_PLACEMENT_3D ( 'NONE', #245, #109, #215 ) ;
#271 = EDGE_LOOP ( 'NONE', ( #4 ) ) ;
#272 = AXIS2_PLACEMENT_3D ( 'NONE', #171, #141, #148 ) ;
#273 = EDGE_CURVE ( 'NONE', #14, #14, #166, .T. ) ;
#274 = EDGE_LOOP ( 'NONE', ( #146 ) ) ;
#275 = DIRECTION ( 'NONE',  ( 2.449293598294706414E-16, -1.000000000000000000, -0.000000000000000000 ) ) ;
#276 = FACE_BOUND ( 'NONE', #41, .T. ) ;
#277 = ADVANCED_FACE ( 'NONE', ( #216, #332 ), #33, .F. ) ;
#278 = SPHERICAL_SURFACE ( 'NONE', #89, 9.650000000000000355 ) ;
#279 = FILL_AREA_STYLE ('',( #145 ) ) ;
#280 = VERTEX_POINT ( 'NONE', #111 ) ;
#281 = DIRECTION ( 'NONE',  ( 0.000000000000000000, 0.000000000000000000, -1.000000000000000000 ) ) ;
#282 = DIRECTION ( 'NONE',  ( 1.000000000000000000, 0.000000000000000000, 0.000000000000000000 ) ) ;
#283 = EDGE_LOOP ( 'NONE', ( #165 ) ) ;
#284 = CARTESIAN_POINT ( 'NONE',  ( 6.500000000000001776, 0.000000000000000000, 0.000000000000000000 ) ) ;
#285 = EDGE_LOOP ( 'NONE', ( #93 ) ) ;
#286 = PRODUCT_DEFINITION_CONTEXT ( 'detailed design', #225, 'design' ) ;
#287 = FILL_AREA_STYLE_COLOUR ( '', #346 ) ;
#288 = AXIS2_PLACEMENT_3D ( 'NONE', #104, #324, #100 ) ;
#289 = EDGE_CURVE ( 'NONE', #256, #256, #326, .T. ) ;
#290 = CARTESIAN_POINT ( 'NONE',  ( 1.731320873361065875E-16, -16.00000000000000000, 0.000000000000000000 ) ) ;
#291 = UNCERTAINTY_MEASURE_WITH_UNIT (LENGTH_MEASURE( 1.000000000000000082E-05 ), #156, 'distance_accuracy_value', 'NONE');
#292 = SURFACE_STYLE_USAGE ( .BOTH. , #349 ) ;
#293 =( GEOMETRIC_REPRESENTATION_CONTEXT ( 3 ) GLOBAL_UNCERTAINTY_ASSIGNED_CONTEXT ( ( #79 ) ) GLOBAL_UNIT_ASSIGNED_CONTEXT ( ( #135, #242, #336 ) ) REPRESENTATION_CONTEXT ( 'NONE', 'WORKASPACE' ) );
#294 = ADVANCED_FACE ( 'NONE', ( #233, #47 ), #49, .F. ) ;
#295 = SPHERICAL_SURFACE ( 'NONE', #176, 6.500000000000000000 ) ;
#296 = DIRECTION ( 'NONE',  ( -1.000000000000000000, -0.000000000000000000, -0.000000000000000000 ) ) ;
#297 = STYLED_ITEM ( 'NONE', ( #118 ), #76 ) ;
#298 = AXIS2_PLACEMENT_3D ( 'NONE', #158, #212, #6 ) ;
#299 = DIRECTION ( 'NONE',  ( -1.236657766686475779E-17, -1.000000000000000000, -0.000000000000000000 ) ) ;
#300 = ADVANCED_FACE ( 'NONE', ( #357, #103 ), #97, .T. ) ;
#301 = EDGE_LOOP ( 'NONE', ( #84 ) ) ;
#302 = CLOSED_SHELL ( 'NONE', ( #105 ) ) ;
#303 = ORIENTED_EDGE ( 'NONE', *, *, #289, .F. ) ;
#304 = CARTESIAN_POINT ( 'NONE',  ( 4.286263797015735707E-15, -30.00000000000000000, 0.000000000000000000 ) ) ;
#305 = CONICAL_SURFACE ( 'NONE', #236, 6.978226515607055092, 0.7853981633974439491 ) ;
#306 = ORIENTED_EDGE ( 'NONE', *, *, #318, .T. ) ;
#307 = AXIS2_PLACEMENT_3D ( 'NONE', #23, #46, #234 ) ;
#308 = CARTESIAN_POINT ( 'NONE',  ( -6.500000000000000000, 0.000000000000000000, 0.000000000000000000 ) ) ;
#309 = EDGE_CURVE ( 'NONE', #106, #106, #210, .T. ) ;
#310 = EDGE_LOOP ( 'NONE', ( #73 ) ) ;
#311 = DIRECTION ( 'NONE',  ( -1.000000000000000000, -1.224646799147353207E-16, -0.000000000000000000 ) ) ;
#312 = VERTEX_POINT ( 'NONE', #192 ) ;
#313 = CARTESIAN_POINT ( 'NONE',  ( 1.799999999999999822, 7.378226515607055447, 0.000000000000000000 ) ) ;
#314 = FACE_OUTER_BOUND ( 'NONE', #241, .T. ) ;
#315 = EDGE_LOOP ( 'NONE', ( #53 ) ) ;
#316 = CIRCLE ( 'NONE', #95, 4.799999999999998934 ) ;
#317 =( LENGTH_UNIT ( ) NAMED_UNIT ( * ) SI_UNIT ( .MILLI., .METRE. ) );
#318 = EDGE_CURVE ( 'NONE', #247, #247, #58, .T. ) ;
#319 = FACE_OUTER_BOUND ( 'NONE', #80, .T. ) ;
#320 = CARTESIAN_POINT ( 'NONE',  ( 4.286263797015735707E-15, -30.00000000000000000, 0.000000000000000000 ) ) ;
#321 = COLOUR_RGB ( '',0.8274509803921568096, 0.8392156862745098200, 0.8274509803921568096 ) ;
#322 = CARTESIAN_POINT ( 'NONE',  ( 6.500000000000002665, -7.132496056781241656, 0.000000000000000000 ) ) ;
#323 = ADVANCED_FACE ( 'NONE', ( #60 ), #278, .T. ) ;
#324 = DIRECTION ( 'NONE',  ( -1.000000000000000000, -0.000000000000000000, -0.000000000000000000 ) ) ;
#325 = FACE_BOUND ( 'NONE', #283, .T. ) ;
#326 = CIRCLE ( 'NONE', #108, 6.500000000000003553 ) ;
#327 = EDGE_LOOP ( 'NONE', ( #201 ) ) ;
#328 = EDGE_LOOP ( 'NONE', ( #88 ) ) ;
#329 = DIRECTION ( 'NONE',  ( 0.000000000000000000, 0.000000000000000000, 1.000000000000000000 ) ) ;
#330 = ORIENTED_EDGE ( 'NONE', *, *, #231, .F. ) ;
#331 = CARTESIAN_POINT ( 'NONE',  ( 1.800000000000000488, 0.000000000000000000, 6.878226515607056335 ) ) ;
#332 = FACE_OUTER_BOUND ( 'NONE', #246, .T. ) ;
#333 = AXIS2_PLACEMENT_3D ( 'NONE', #56, #34, #136 ) ;
#334 = ORIENTED_EDGE ( 'NONE', *, *, #249, .T. ) ;
#335 = CIRCLE ( 'NONE', #149, 4.000000000000000000 ) ;
#336 =( NAMED_UNIT ( * ) SI_UNIT ( $, .STERADIAN. ) SOLID_ANGLE_UNIT ( ) );
#337 = ADVANCED_FACE ( 'NONE', ( #164, #5 ), #142, .T. ) ;
#338 = CARTESIAN_POINT ( 'NONE',  ( 0.000000000000000000, 0.000000000000000000, 0.000000000000000000 ) ) ;
#339 = EDGE_LOOP ( 'NONE', ( #160 ) ) ;
#340 =( NAMED_UNIT ( * ) SI_UNIT ( $, .STERADIAN. ) SOLID_ANGLE_UNIT ( ) );
#341 = CARTESIAN_POINT ( 'NONE',  ( -1.000000000000000000, 0.000000000000000000, 6.878226515607056335 ) ) ;
#342 =( NAMED_UNIT ( * ) PLANE_ANGLE_UNIT ( ) SI_UNIT ( $, .RADIAN. ) );
#343 = AXIS2_PLACEMENT_3D ( 'NONE', #59, #20, #169 ) ;
#344 = DIRECTION ( 'NONE',  ( -1.000000000000000000, -0.000000000000000000, -0.000000000000000000 ) ) ;
#345 = SURFACE_STYLE_FILL_AREA ( #92 ) ;
#346 = COLOUR_RGB ( '',0.8274509803921568096, 0.8392156862745098200, 0.8274509803921568096 ) ;
#347 = PLANE ( 'NONE',  #267 ) ;
#348 = DIRECTION ( 'NONE',  ( -1.236657766686475779E-17, -1.000000000000000000, -0.000000000000000000 ) ) ;
#349 = SURFACE_SIDE_STYLE ('',( #128 ) ) ;
#350 = CARTESIAN_POINT ( 'NONE',  ( 0.000000000000000000, 0.000000000000000000, 0.000000000000000000 ) ) ;
#351 = DIRECTION ( 'NONE',  ( 0.000000000000000000, 0.000000000000000000, 1.000000000000000000 ) ) ;
#352 = FILL_AREA_STYLE ('',( #230 ) ) ;
#353 = DIRECTION ( 'NONE',  ( 0.000000000000000000, 1.000000000000000000, 0.000000000000000000 ) ) ;
#354 = DIRECTION ( 'NONE',  ( 1.000000000000000000, 2.668805347656624706E-16, 0.000000000000000000 ) ) ;
#355 = FACE_OUTER_BOUND ( 'NONE', #301, .T. ) ;
#356 = ADVANCED_FACE ( 'NONE', ( #3, #214 ), #54, .F. ) ;
#357 = FACE_OUTER_BOUND ( 'NONE', #339, .T. ) ;
#358 = AXIS2_PLACEMENT_3D ( 'NONE', #98, #71, #27 ) ;
#359 = CARTESIAN_POINT ( 'NONE',  ( 0.7999999999999999334, 6.878226515607056335, 0.000000000000000000 ) ) ;
ENDSEC;
END-ISO-10303-21;
